VGJam Tabs Perfect Dark
Perfect Dark
"Carrington Institute" - Guitar tab
Platform(s):Nintendo 64
Composed by:Grant Kirkhope
Soundtrack:Perfect Dark OST (track D1-18)
Tabbed by:Thomas McManus
Last modified:2000-08-18
Print it:Original file (.TXT)
Song: Carrington Institute
Game: Perfect Dark
Composed by: Grant "play that music maestro" Kirkhope and Martin "sound geezer" Penny
Tabbed by: Thomas McManus (tom0015@hotmail.com)


First there's a mellow drum intro, then the clean electric comes in.
It is first played slowly by an electric guitar, second with some bells
(short notes), third as the bass guitar comes in, and fourth hauntingly
with some brass adding highlights.

e-------3~~--2~~------------3~~--5~~--2~~------------|
B-5~~-------------3~~-0-1~~---------------3~-5~~~----|\
G----------------------------------------------------|play
D----------------------------------------------------| x4
A----------------------------------------------------|/
E----------------------------------------------------|

Next comes some neat effects and arpeggios (?), I can't figure out 
the notes so I just play the individual notes several times.

e----------------------------------------------------
B----------------------------------------------------
G----------------------------------------------------
D-22222222222-55555555555-22222222222----------------
A-------------------------------------33333333333----
E----------------------------------------------------

Back to plain electric:
e----2-3~--5-6~--8-7~~--10/11b12~~~~~~~---12---------
B-5~-------------------------------------------------
G----------------------------------------------------
D----------------------------------------------------
A----------------------------------------------------
E----------------------------------------------------

Then repeat.
VGJam Tabs Perfect Dark - "Carrington Institute"
Tabs database last modified Tuesday, 01-Nov-2016 19:14:53 UTC.
Copyright © 1999 - 2016 VideoGameJam.com. All rights reserved.