VGJam Tabs Perfect Dark
Perfect Dark
"Credits" - Guitar tab
Platform(s):Nintendo 64
Composed by:Grant Kirkhope
Soundtrack:Perfect Dark OST (track D2-04)
Tabbed by:Thomas McManus
Last modified:2000-08-18
Print it:Original file (.TXT)
Hear it:MIDI file
Song: End Credits
Game: Perfect Dark
Composed by: Grant "play that music maestro" Kirkhope and Martin "sound geezer" Penny
Tabbed by: Thomas McManus (tom0015@hotmail.com)


This is tricky to play, I can't really show how to start and stop and strum
the chords, so give it a listen before trying to duplicate. :)

There are two guitars, the second one just plays an E5 most of the time.

DROP C TUNING (CGCGBe)

   E5   E5   E5  E5                                       
e-----------------------3~-2~---------3~-5~-2~--------------
B--------------------5~-------3~-0-1~----------3-5~---------
G-----------------------------------------------------------
C-4-4-4444-4-4444-44----------------------------------------
G-4-4-4444-4-4444-44----------------------------------------
C-4-4-4444-4-4444-44----------------------------------------

  E5  E5   E5    E5      E5        very  slow
e-------------------------------0///////////////////12------
B-----------------------------------------------------------
G-----------------------------------------------------------
C-4-4-4444-4-4444-4-4444-4-4444-----------------------------
G-4-4-4444-4-4444-4-4444-4-4444-----------------------------
C-4-4-4444-4-4444-4-4444-4-4444-----------------------------

                               [some instrument] E5  E5     E5     E5
e----3~-2~--------3~-5~-2~------------------------------------------------
B-5~-------3~-0-1----------3-5~--0-5-0-0-5-0------------------------------
G-------------------------------------------------------------------------
C----------------------------------------------4-444-4-4444-4-444\-4-4444-
G----------------------------------------------4-444-4-4444-4-444\-4-4444-
C----------------------------------------------4-444-4-4444-4-444\-4-4444-

                             [some instrument]  E5     E5     E5
e----3~-2~--------3~-5~-2~-----------------------------------------------
B-5~-------3~-0-1----------3-5~--0-5-0-0-5-0-----------------------------
G------------------------------------------------------------------------
D-----------------------------------------------4-4444-4-4444-4-444444---
A-----------------------------------------------4-4444-4-4444-4-444444---
E-----------------------------------------------4-4444-4-4444-4-444444---

  G5   E5    E5     E5
e---------------------------3~-2~--------3~-5~-2~-----------
B------------------------5~-------3~-0-1----------3-5~------
G-----------------------------------------------------------
D-7\---4-444-4-4444-4444------------------------------------
A-7\---4-444-4-4444-4444------------------------------------
E-7\---4-444-4-4444-4444------------------------------------

e----3~-2~-----------2~-3-2----7-8-7~----7/12---------------
B-5~-------3~-0-1-5~--------5~--------5~--------------------
G-----------------------------------------------------------
D-----------------------------------------------------------
A-----------------------------------------------------------
E-----------------------------------------------------------

 make these distinct
e-----------------------------------------------------------
B-----------------------------------------------------------
G-------------0-2-------------------------------------------
D-2-5-4-0---------4-0-2~~~~~~-0~~~~~~-2~~~~~~-5~~~~~~-------
A---------2-3-----------------------------------------------
E-----------------------------------------------------------

Next there's two parts: guitar 2 plays this four times:
  E5     E5         G5 G5 G5 G5    E5    E5      C5     C5
e--------------------------------------------------------------------
B--------------------------------------------------------------------
G--------------------------------------------------------------------
D-4-4444-4-4444-4444-7-7777-7-7777-4-4444-4-44444-0-0000-0-0000000---
A-4-4444-4-4444-4444-7-7777-7-7777-4-4444-4-44444-0-0000-0-0000000---
E-4-4444-4-4444-4444-7-7777-7-7777-4-4444-4-44444-0-0000-0-0000000---

While guitar one plays these riffs:
1st time: nothing

2nd time:
e----2-3~-5-6~~-8-7~-10-8~~~------------
B-5~------------------------------------
G---------------------------------------
D---------------------------------------
A---------------------------------------
E---------------------------------------

3rd time:
e----------------------------------------------
B----------------------------------------------
G----------------------------------------------
D-2/7\2/7\2--5/10\5/10\5--2/7\2/7\2------------
A------------------------------------3/8\3/8\3-
E----------------------------------------------

4th time:
e----2-3~-5-6~-8-7~-10/11b12~~~~--------
B-5~------------------------------------
G---------------------------------------
D---------------------------------------
A---------------------------------------
E---------------------------------------

Back to one guitar (distinct):
e-------------------------12b\\-12b\\---------
B---------------------------------------------
G-------------0-2-----------------------------
D-2-5-4-0---------4-0-2~----------------------
A---------2-3---------------------------------
E---------------------------------------------


Now repeat from the slow slide.
VGJam Tabs Perfect Dark - "Credits"
Tabs database last modified Tuesday, 01-Nov-2016 19:14:53 UTC.
Copyright © 1999 - 2016 VideoGameJam.com. All rights reserved.