VGJam Tabs Perfect Dark
Perfect Dark
"Alien Conflict" - Guitar tab
Platform(s):Nintendo 64
Composed by:Grant Kirkhope
Soundtrack:Perfect Dark OST (track D2-15)
Tabbed by:Thomas McManus
Last modified:2000-12-06
Print it:Original file (.TXT)
Hear it:MIDI file
Song: Alien Conflict
Game: Perfect Dark
Composed by: Grant "play that music maestro" Kirkhope and Martin "sound geezer" Penny
Tabbed by: Thomas McManus (tom0015@hotmail.com)


e--------------------------------------
B--------------------------------------
G-------------------------------------- play
D-2~~~~~-------------------------------  x6
A--------5~~~~~-4-2~~~~~-1~~~~~~~~-----
E--------------------------------------

e-0----2-3------6-7-----------------7-5-3-5-2-3-------------------|
B-------------------------------------------------4-5-------------|
G-----------------------------------------------------------------|
D-----------------------------------------------------------------|
A-----------------------------------------------------------------|
E-----------------------------------------------------------------| play
|                                                                 |  x2
e-----------------------------------------------------------------|
B-----------------------------------------------------------------|
G-----------------------------------------------------------------|
D-2~~~~~----------------------------2~~~~~------------------------|
A--------5~~~~~-4-2~~~~~-1~~~~~~~~---------5~~~~~-4-2~~~~~-1~~~~~-|
E-----------------------------------------------------------------|


Play this with slight distortion:

 F#5      D5      F#5     n.c.
e------------------------------------
B-7-7-----3-3-----7-7----------------
G-6-6-----2-2-----6-6---------------- play
D-4-4-----0-0-----4-4----------------  x4
A------------------------------------
E------------------------------------

Ten second interlude that I can't figure out (sounds like the 
haunting vocals when the N logo is morphing into PD-style),
then play this:

e-0----2-3------6-7-----------------7-5-3-5-2-3-------------------|
B-------------------------------------------------4-5-------------|
G-----------------------------------------------------------------|
D-----------------------------------------------------------------|
A-----------------------------------------------------------------|
E-----------------------------------------------------------------| play
|                                                                 |  x2
e-----------------------------------------------------------------|
B-----------------------------------------------------------------|
G-----------------------------------------------------------------|
D-2~~~~~----------------------------2~~~~~------------------------|
A--------5~~~~~-4-2~~~~~-1~~~~~~~~---------5~~~~~-4-2~~~~~-1~~~~~-|
E-----------------------------------------------------------------|

Then repeat as much as desired.

VGJam Tabs Perfect Dark - "Alien Conflict"
Tabs database last modified Tuesday, 01-Nov-2016 19:14:53 UTC.
Copyright © 1999 - 2016 VideoGameJam.com. All rights reserved.