VGJam Tabs Perfect Dark
Perfect Dark
"Carrington Institute (training)" - Bass tab
Platform(s):Nintendo 64
Composed by:Grant Kirkhope
Tabbed by:pingosimon
Last modified:2001-06-03
Print it:Original file (.TXT)
this tab is in bass and is for Perfect Dark, when you are walking around in 
the Carrington Institute (the training, not the mission).

Game-Perfect Dark
System-Nintendo 64
Song-Carrington Institute Theme (Bass part)

E--0-0--------------------------------
A-------------------------------------
D-------------------------------------
G-------------------------------------


E---0--0------------------------------
A---------2-----------------0--2------
D------------0--2-----0-0---------0---
G-------------------------------------


E---0--0------------------------------
A-------------------------------------
D----------2-0-2-----4-4--4-0---------
G-------------------------------------


E----------0--0-------------------0--0--------
A---2---2--------2---------2---2--------2-----
D-----0------------0-2-------0------------0-2-
G---------------------------------------------


E----------0--0-----------------------
A---2---2--------2-------------0-2----
D-----0------------0-2----0-0------0--
G-------------------------------------


E---0-0------------------------------0--0---------
A-----------------------------2---2--------2------
D--------2-0-2----4-4--4-0------0------------0-2--
G-------------------------------------------------


E----------0--0---------
A---2---2----------2----
D-----0--------------0-2
G-----------------------


E----------0--0--------------------3-3----3-------
A---2---2--------2---2------2---2-----------------
D-----0-----------------2---------------0---0-----
G------------------4----------4----------------0--



E---3---3-----3---0--0----------------------------3-----
A-----------------------2---2------2---2--3-3-----------
D-----0------------------------2---------------0----0---
G----------0--------------4----------4----------------0-

VGJam Tabs Perfect Dark - "Carrington Institute (training)"
Tabs database last modified Tuesday, 01-Nov-2016 19:14:53 UTC.
Copyright © 1999 - 2016 VideoGameJam.com. All rights reserved.