VGJam Tabs Super Mario 64
Super Mario 64
"Super Mario 64 Main Theme" - Guitar tab
Platform(s):Nintendo 64
Composed by:Koji Kondo
Soundtrack:Super Mario 64 Original Sound Track (track 05)
Tabbed by:Deezer
Last modified:1999-08-18
Print it:Original file (.TXT)
Hear it:MIDI file
#----------------------------------PLEASE NOTE---------------------------------#
#This file is the author's own work and represents their interpretation of the #
#song. You may only use this file for private study, scholarship, or research. #
#------------------------------------------------------------------------------#

Super Mario 64 (Nintendo 64)
"Course 1"

Originally composed by: Koji Kondo
------------------------------------------------------------------------------
Tabbed by: Deezer (deezer@usa.net)
For http://www.kontek.net/vgjam/
------------------------------------------------------------------------------

Symbols used:
 \ = Slide down

Standard Tuning - (low to high) EADGBe


  N.C.
-------------------------------------------
-------------------------------------------
-------------------------------------------
--10--7--10--12-10--2---3--4--5----5-5--5--
-------------------------------------------
---8--5---8--10--8--0---1--2--3------3--3--


* N.C.
------------------------------------------------
------------------------------------------------
------------------------------------------------
------------5--7-5------------------------------
--5-6-7-6-7--------------------------3--5-3-----
--------------------8------3-4-5-4-5---------5--


  N.C.
----------------------------------------------
----------------------------------------------
-----------0----------0-----------------------
-----------------------------5--3--5--7-5-----
--0----------------------------------------5--
-----3-0-1------3-0-1-----3-------------------


  N.C.
-------------------------------------------------
-------------------------------------------------
--------------------------------------5--7-5-----
------------5--7-5--8-------------6--------------
--5-6-7-6-7----------------6--7-6---6---------7--
-------------------------------------------------


  N.C.
-----------------------------------
-----------------------------------
-----------------------------------
--7--5-4-5-----5-4-5------3--2-----
--------------------------5-----3--
-----------3---------3--3-------0--


  N.C.
------------------------------------------------
------------------------------------------------
------------------------------------------------
------------5--7-5------------------------------
--5-6-7-6-7--------------------------3--5-3-----
--------------------8------3-4-5-4-5---------5--


  N.C.
----------------------------------------------
----------------------------------------------
-----------0----------------------------------
-----------------------------5--3--5--7-5-----
--0----------------------------------------5--
-----3-0-1------3-1-0-3---3-------------------


  N.C.
-------------------------------------------------
-------------------------------------------------
--------------------------------------5--7-5-----
------------5--7-5--8-------------6--------------
--5-6-7-6-7----------------6--7-6---6---------7--
-------------------------------------------------


  N.C.
-----------------------------------
-----------------------------------
-----------------------------------
--7--5-4-5-----5-4-5------3--2-----
--------------------------------3--
-----------3---------3--3----------


  N.C.           F5 N.C.
--0-1-3-4-5---------3------0--1---3---0--
----------6------6--5------1-------------
-----------------5-----------------------
-----------------------------------------
-----------------------------------------
-----------------------------------------


  N.C.
--0-1-3-4-5------4--3------2--1---0------
----------6------6--5-----------------1--
-----------------------------------------
-----------------------------------------
-----------------------------------------
-----------------------------------------


  N.C.
--5-5-4-4-3-3-2-2--1---3---0--
--6-6-6-6-5-5-4-4--3---5---1--
------------------------------
------------------------------
------------------------------
------------------------------


  N.C.                     C5
--5-5-4-4-3-3-2-2--1---0------
--6-6-6-6-5-5-4-4--3---1---1--
---------------------------0--
------------------------------
------------------------------
------------------------------


  N.C.
-------------------------------------------
--1----------1-----------------------------
-------3----------3-----2----------2-------
----2----------2-------------1----------1--
--------------------------3----------3-----
-------------------------------------------


  N.C.
------------------------------------------------
--1----------1----------------------------------
-------3----------3-----------------------------
----2----------2--------7--7--7--7--6-----------
------------------------8--8--8--8--8-----------
------------------------------------------15\3--


  N.C.
-------------------------------------------
--1----------1-----------------------------
-------3----------3-----2----------2-------
----2----------2-------------1----------1--
--------------------------3----------3-----
-------------------------------------------


  N.C.
------------------------------------------------
--1----------1----------------------------------
-------3----------3--------------5--8-----------
----2----------2--------7--7--7-----------14\0--
------------------------------------------------
------------------------------------------------

Repeat from *.


Last revised: 8/18/99

VGJam Tabs Super Mario 64 - "Super Mario 64 Main Theme"
Tabs database last modified Tuesday, 01-Nov-2016 19:14:53 UTC.
Copyright © 1999 - 2016 VideoGameJam.com. All rights reserved.