VGJam Tabs Super Mario 64
Super Mario 64
"Dire, Dire Docks" - Guitar tab
Platform(s):Nintendo 64
Composed by:Koji Kondo
Soundtrack:Super Mario 64 Original Sound Track (track 09)
Tabbed by:Deezer
Last modified:2004-01-17
Print it:Original file (.TXT)
Hear it:MIDI file
#----------------------------------PLEASE NOTE---------------------------------#
#This file is the author's own work and represents their interpretation of the #
#song. You may only use this file for private study, scholarship, or research. #
#------------------------------------------------------------------------------#

Super Mario 64 (Nintendo 64)
"Dire, Dire Docks"

Originally composed by: Koji Kondo
------------------------------------------------------------------------------
Tabbed by: Deezer (deezer@kontek.net)
For http://www.kontek.net/vgjam/
------------------------------------------------------------------------------

Standard tuning - EADGBe


Intro:
======
 12 measures (not tabbed)

Part A:
=======

|-----------------------------------------------------------------
|----------------12--13--12---------------------------------------
|--------12--14--------------14--12----------------12-------------
|----12--------------------------------12----------------12-------
|--------------------------------------------15-------------------
|-----------------------------------------------------------------

 ----------------------------------------------------------------|
 ----------------------------------------------------------------|
 ---------------------------------12-----------------------------|
 -----------------------------12---------------------------------|
 ------------------15-----14-------------------------------------|
 ----------------------------------------------------------------| repeat

----------12----------12--------------------
--------------15--13------15------12--------
------12------------------------------------
--------------------------------------------
--------------------------------------------
--------------------------------------------

--------------------------------------------
----------15--13--12--13--12----------------
------12--------------------------12--------
--------------------------------------------
--------------------------------------------
--------------------------------------------

----------12----------12--------------------
--------------15--13------15------12--------
------12------------------------------------
--------------------------------------------
--------------------------------------------
--------------------------------------------

----------------------------------------------------
--------13--15--13--12------------------------------
----------------------------12----------------------
----------------------------------12----------------
----------------------------------------------------
----------------------------------------------------

Repeat from Part A, then play:

Part B:
=======

----------------------------------------------------
----------------------------------------------------
--------10----10----10----10--10--10----10--10--10--
--------10----10----10----10--10--10----10--10--10--
----------------------------------------------------
----------------------------------------------------

----------------------------------------------------
----------------------------------------------------
--------12----12----12----12--12--12----12--12--12--
--------12----12----12----12--12--12----12--12--12--
----------------------------------------------------
----------------------------------------------------

----------------------------------------------------
----------------------------------------------------
--------12----12----12----14----14------------------
--------10----10----10----12----12------------------
----------------------------------------------------
----------------------------------------------------

Repeat from beginning.


Last revised: 01/17/2004

VGJam Tabs Super Mario 64 - "Dire, Dire Docks"
Tabs database last modified Tuesday, 01-Nov-2016 19:14:53 UTC.
Copyright © 1999 - 2016 VideoGameJam.com. All rights reserved.