VGJam Tabs Super Mario 64
Super Mario 64
"Cave Dungeon" - Guitar tab
Platform(s):Nintendo 64
Composed by:Koji Kondo
Soundtrack:Super Mario 64 Original Sound Track (track 14)
Tabbed by:Deezer
Last modified:2000-02-10
Print it:Original file (.TXT)
Hear it:MIDI file
#----------------------------------PLEASE NOTE---------------------------------#
#This file is the author's own work and represents their interpretation of the #
#song. You may only use this file for private study, scholarship, or research. #
#------------------------------------------------------------------------------#

Super Mario 64 (Nintendo 64)
"Cave Dungeon (Hazy Maze Cave)"

Originally composed by: Koji Kondo
------------------------------------------------------------------------------
Tabbed by: Deezer (deezer@usa.net)
For http://www.kontek.net/vgjam/
------------------------------------------------------------------------------

Symbols used:
 ~ = let ring / slight vibrato

Standard Tuning - (low to high) EADGBe


Lead comes in about a minute into the song:
===========================================


----------15--------------------------------------------
------13------15~~~~~~----------13----15----------------
--12------------------------------------------12~~~~~~--
------------------------------------------12------------
--------------------------------------------------------
--------------------------------------------------------


----------15--------------------------------------------
------13------15~~~~~~----------13----15------13~~~~~~--
--12--------------------------------------12------------
--------------------------------------------------------
--------------------------------------------------------
--------------------------------------------------------


------------------------------------------------------
----------13------------------------------------------
------12------12~~~~~~------------------12------------
--12----------------------------12--10------12~~~~~~--
------------------------------------------------------
------------------------------------------------------


Bass guitar:
============


|-----17----14----15--|
|---------------------|
|--15----12----13-----|
|---------------------| x2


|----10-----7-----8--|
|--------------------|
|--8-----5-----6-----|
|--------------------| x2


--------------------------------------3p2p1-------------
---------------------------------4p3p2------1-----------
--6p5p4p3---6---5-----------4---3--------------2-1-0----
--------------------4---3----------------------------4--


Last revised: 2/10/2000

VGJam Tabs Super Mario 64 - "Cave Dungeon"
Tabs database last modified Tuesday, 01-Nov-2016 19:14:53 UTC.
Copyright © 1999 - 2016 VideoGameJam.com. All rights reserved.