VGJam Tabs Super Mario 64
Super Mario 64
"File Select" - Guitar tab
Platform(s):Nintendo 64
Composed by:Koji Kondo
Soundtrack:Super Mario 64 Original Sound Track (track 18)
Tabbed by:Deezer
Last modified:2000-01-21
Print it:Original file (.TXT)
Hear it:MIDI file
#----------------------------------PLEASE NOTE---------------------------------#
#This file is the author's own work and represents their interpretation of the #
#song. You may only use this file for private study, scholarship, or research. #
#------------------------------------------------------------------------------#

Super Mario 64 {Nintendo 64)
"Select File screen"

Originally composed by: Koji Kondo
------------------------------------------------------------------------------
Tabbed by: Deezer (deezer@usa.net)
For http://www.kontek.net/vgjam/
------------------------------------------------------------------------------

Symbols used:
 ~ = let ring / slight vibrato

Standard Tuning - (low to high) EADGBe


------------------------------------------------------------------------------
-----15--15-------15--12~~~~-----15--12--13--15--------15--15-------15--12~~~~
-12----------14------------------------------------12----------14-------------
------------------------------------------------------------------------------
------------------------------------------------------------------------------
------------------------------------------------------------------------------
                                                                            x2

------------------------15~~~~----------------------------------------------
--15--13--15--12----15------------------------15--13--15--12----15--13~~~~--
----------------------------------------------------------------------------
----------------------------------------------------------------------------
----------------------------------------------------------------------------
----------------------------------------------------------------------------


------------------------15~~~~----------------17--15--17--15----19--15~~~~--
--15--13--15--12----15------------------------------------------------------
----------------------------------------------------------------------------
----------------------------------------------------------------------------
----------------------------------------------------------------------------
----------------------------------------------------------------------------


Last revised: 1/21/2000

VGJam Tabs Super Mario 64 - "File Select"
Tabs database last modified Tuesday, 01-Nov-2016 19:14:53 UTC.
Copyright © 1999 - 2016 VideoGameJam.com. All rights reserved.