VGJam Tabs Super Mario 64
Super Mario 64
"Koopa's Theme" - Guitar tab
Platform(s):Nintendo 64
Composed by:Koji Kondo
Soundtrack:Super Mario 64 Original Sound Track (track 30)
Tabbed by:Chris Wilke
Last modified:2000-06-27
Print it:Original file (.TXT)
Hear it:MIDI file
Here is my version od this you Can play it on guitar or bass youl have to fiddle
 with it for a while but the fingerings are the same.Done by Chris Wilke
                                                       HybridDemon@aol.com
|-------|--|--||----------------||----------------||----------------||-----
|-------|--|--||----------------||----------------||----------------||-----
|-------|--|--||---------2--1---||---------0------||---------2--1---||---0-
|-------|--|--||------0---------||------0-----3---||------0---------||-----
|-------|--|--||---0------------||---0------------||---0------------||-----
|-------|--|--||----------------||----------------||----------------||-----

--------||----------------||----------------||----------------||--------
--------||----------------||----------------||----------------||--------
--------||---------2--1---||---------0------||---------2--1---||---0----
-3--0---||------0---------||------0-----3---||------0---------||------3-
--------||---0------------||---0------------||---0------------||--------
--------||----------------||----------------||----------------||--------

-----||----------------||----------------||----------------||-------------|
-----||----------------||----------------||----------------||-------------|
-----||---------2--1---||---------0------||---------2--1---||---0---------|
-0---||------0---------||------0-----3---||------0---------||------3--0---|
-----||---0------------||---0------------||---0------------||-------------|
-----||----------------||----------------||----------------||-------------|


|----------------||----------------||----------------||-------------||-----
|----------------||----------------||----------------||-------------||-----
|---------2--1---||---------0------||---------2--1---||---0---------||-----
|------0---------||------0-----3---||------0---------||------3--0---||---0-
|---0------------||---0------------||---0------------||-------------||-----
|----------------||----------------||----------------||-------------||-----


-----------||----------------||----------------||----------------||-----
-----------||----------------||----------------||----------------||-----
-----------||----------------||----------------||----------------||-----
----0------||----------------||---0-----0------||----------------||---0-
-0-----4---||---3-----3--2---||------0-----4---||---3-----3--2---||-----
-----------||------3---------||----------------||------3---------||-----


-----------||-------------------||----------------||----------------||-----
-----------||-------------------||----------------||----------------||-----
-----------||-------------------||----------------||----------------||-----
----0------||---2--0-----0------||---0-----0------||----------------||-----
-0-----4---||---------0-----4---||------0-----4---||---3-----3--2---||---0-
-----------||-------------------||----------------||------3---------||-----


-----------||----------------||----------------||----------------||-----
-----------||----------------||----------------||----------------||-----
----2--1---||---------0------||---------2--1---||------0---------||-----
-0---------||------0-----3---||---0--3---------||---0-----3--0---||-----
-----------||---0------------||----------------||----------------||-----
-----------||----------------||----------------||----------------||-----
                                                                      L 

--------------||----------------------------||----------------------||-----
--------------||----------------------------||----------------------||-----
--------------||----------------------------||----------------------||-----
----0---------||----------------------------||------------0---------||-----
--------------||---4--------3--------3--2---||----------------------||---4-
-3--------3---||---------3--------3---------||---3-----3--------3---||-----
       L              L        L                    L        L

-----------------------||-------------------||----------------||--------
-----------------------||-------------------||----------------||--------
-----------------------||------------2--1---||---------0------||--------
-----------------------||---------0---------||------0-----3---||------0-
-------3--------3--2---||------0------------||---0------------||---0----
----3--------3---------||---3---------------||----------------||--------
 L        L

--------||-------------||----------------||----------------||-----------
--------||-------------||----------------||----------------||-----------
-2--1---||---0---------||---------2--1---||---------0------||---------2-
--------||------3--0---||------0---------||------0-----3---||------0----
--------||-------------||---0------------||---0------------||---0-------
--------||-------------||----------------||----------------||-----------


-----||-------------||----------------||----------------||----------------|
-----||-------------||----------------||----------------||----------------|
-1---||---0---------||---------2--1---||---------0------||---------2--1---|
-----||------3--0---||------0---------||------0-----3---||------0---------|
-----||-------------||---0------------||---0------------||---0------------|
-----||-------------||----------------||----------------||----------------|


|-------------||----------------||----------------||----------------||-----
|-------------||----------------||----------------||----------------||-----
|---0---------||---------2--1---||---------0------||---------2--1---||---0-
|------3--0---||------0---------||------0-----3---||------0---------||-----
|-------------||---0------------||---0------------||---0------------||-----
|-------------||----------------||----------------||----------------||-----


--------||----------------||----------------||----------------||--------
--------||----------------||----------------||----------------||--------
--------||----------------||----------------||----------------||--------
-3--0---||---0-----0------||----------------||---0-----0------||--------
--------||------0-----4---||---3-----3--2---||------0-----4---||---3----
--------||----------------||------3---------||----------------||------3-


--------||----------------||-------------------||----------------||-----
--------||----------------||-------------------||----------------||-----
--------||----------------||-------------------||----------------||-----
--------||---0-----0------||---2--0-----0------||---0-----0------||-----
-3--2---||------0-----4---||---------0-----4---||------0-----4---||---3-
--------||----------------||-------------------||----------------||-----


-----------||----------------||----------------||----------------||-----
-----------||----------------||----------------||----------------||-----
-----------||---------2--1---||---------0------||---------2--1---||-----
-----------||------0---------||------0-----3---||---0--3---------||---0-
----3--2---||---0------------||---0------------||----------------||-----
-3---------||----------------||----------------||----------------||-----


-----------||-------------------||----------------------------||--------
-----------||-------------------||----------------------------||--------
-0---------||-------------------||----------------------------||--------
----3--0---||---------0---------||----------------------------||--------
-----------||-------------------||---4--------3--------3--2---||--------
-----------||------3--------3---||---------3--------3---------||---3----
                L        L              L        L                    L 

--------------||----------------------------|
--------------||----------------------------|
--------------||----------------------------|
----0---------||----------------------------|
--------------||---4--------3--------3--2---|
-3--------3---||---------3--------3---------|


VGJam Tabs Super Mario 64 - "Koopa's Theme"
Tabs database last modified Tuesday, 01-Nov-2016 19:14:53 UTC.
Copyright © 1999 - 2016 VideoGameJam.com. All rights reserved.