VGJam Tabs Super Smash Bros.
Super Smash Bros.
"Dream Land theme" - Guitar tab
Platform(s):Nintendo 64
Composed by:Various
Tabbed by:Shingo Beyeler
Last modified:2003-01-16
Print it:Original file (.TXT)
Hear it:MIDI file
Tabbed by: Shingo Beyeler
System: N64
Game: Super Smash Brothers
Composed By: ?
Song Title: Dreamland Theme(Kirby's Stage)

Intro:
e|-14--12-10-9-----|----9-10-12-9-|
B|------------12---|-12-----------|
G|--------------11-|--------------|
D|-----------------|--------------|
A|-----------------|--------------|
E|-----------------|--------------|

Part Ia:
e|-7-----------|---------------|-7-----------|-------------------|
B|----7--------|---------------|----7--------|-------------------|
G|-------7-6---|---6-7---------|-------7-6---|--6-7-9-6----------|
D|-----------9-|-9-----9-7-9---|-----------9-|-9--------7--9---9-|
A|-------------|-------------9-|-------------|---------------9---|
E|-------------|---------------|-------------|-------------------|

Part Ib:
e|-7-----------|---------------|-7-----------|-------------------|
B|----7--------|---------------|----7------7-|-------------------|
G|-------7-6---|---6-7---------|-------7-9---|----6--9-6---------|
D|-----------9-|-9-----9-7-9---|-------------|-9---------7-7-9~--|
A|-------------|-------------9-|-------------|------------9------|
E|-------------|---------------|-------------|-------------------|

Part II:
e|-----------------------|-------------------|
B|-----------------------|-------------------|
G|-----------------------|-------------------|
D|-----------------------|--------------2--4-|
A|---------2--5--4--2----|---------2--5------|
E|-0--0--3-------------3-|-0--0--3-----------|

Part III:
e|-------------------|------------------------|
B|-------------------|------------------------|
G|-------------------|------------------------|
D|-5--4-2--0-2-4---4-|-2--2-2-0---0-2-0--2--4-|
A|---------------2---|---------4--------------|
E|-------------------|------------------------|

Part IV:
e|------------------------|---------------------|
B|------------------------|---------------------|
G|---------0-2-4----------|---------------------|
D|-5--4-2---------4-------|--------2------------|
A|-------------------5--2-|-4--4-4---4-0---0-2~-|
E|------------------------|--------------2------|

Part V:
e|-14p12-10--10-10-12-14-14-12-10-9--9-9-10-9-|
B|--------------------------------------------|
G|--------------------------------------------|
D|--------------------------------------------|
A|--------------------------------------------|
E|--------------------------------------------|

e|-10p9----------9-10-10-9-----------------9-|
B|------12--12-12----------12-10--10-10-12---|
G|-------------------------------------------|
D|-------------------------------------------|
A|-------------------------------------------|
E|-------------------------------------------|

e|-------------------------------------10-12-10-----|
B|-12p10-----------10--12-12-10------10----------10-|
G|-------12--12-12--------------12-11---------------|
D|--------------------------------------------------|
A|--------------------------------------------------|
E|--------------------------------------------------|

Part Va:
e|-10--10-10-12-13-13-15-13-12--12-12-13-12-|
B|------------------------------------------|
G|------------------------------------------|
D|------------------------------------------|
A|------------------------------------------|
E|------------------------------------------|

Part Vb:
e|-10-12-14-10-12-14-10-12-10-12-14-19-17-|
B|----------------------------------------|
G|----------------------------------------|
D|----------------------------------------|
A|----------------------------------------|
E|----------------------------------------|

Song Structure:
Intro x1
Part Ia+Ib x2
Part II x1
Part III x1
Part II x1
Part IV x1
Part V+Va x1
Part V+Vbx1
Repeat. 
VGJam Tabs Super Smash Bros. - "Dream Land theme"
Tabs database last modified Tuesday, 01-Nov-2016 19:14:53 UTC.
Copyright © 1999 - 2016 VideoGameJam.com. All rights reserved.