VGJam Tabs Super Smash Bros.
Super Smash Bros.
"Hyrule Castle" - Guitar tab
Platform(s):Nintendo 64
Composed by:Various
Tabbed by:HybridDemon
Last modified:2000-12-13
Print it:Original file (.TXT)
Hear it:MIDI file
Hyrules theme for N64's Super Smash Brothers. I have seperated this into three
guitars playing at once, of course You Will Have to get the timing right.
eBGDAE
4
4listen to game or MIDI for tempo.
gtr1
|---6-----6--6--8--10-11--||---13-13-13-14-16--||---18-18-18-16-14--||---16
|------6------------------||-------------------||-------------------||-----
|-------------------------||-------------------||-------------------||-----
|-------------------------||-------------------||-------------------||-----
|-------------------------||-------------------||-------------------||-----
|-------------------------||-------------------||-------------------||-----

-14-13-13--||---11-11-13-14-13-11--||---9--9--11-13-11-9---||---8--8--10
-----------||----------------------||----------------------||-----------
-----------||----------------------||----------------------||-----------
-----------||----------------------||----------------------||-----------
-----------||----------------------||----------------------||-----------
-----------||----------------------||----------------------||-----------

-12-15--||---13--------------------------------|--|--|--|--|--|--|--|--|--|--|--|--|
--------||-------------------------------------|--|--|--|--|--|--|--|--|--|--|--|--|
--------||------10-10-10-10-10-10-10-10-10-10--|--|--|--|--|--|--|--|--|--|--|--|--|
--------||-------------------------------------|--|--|--|--|--|--|--|--|--|--|--|--|
--------||-------------------------------------|--|--|--|--|--|--|--|--|--|--|--|--|
--------||-------------------------------------|--|--|--|--|--|--|--|--|--|--|--|--|

|-------------------------||-------------------||-------------------||-----
|---11----11-11-13-15-16--||---18-18-18-19-21--||---23-23-23-21-19--||---21
|------10-----------------||-------------------||-------------------||-----
|-------------------------||-------------------||-------------------||-----
|-------------------------||-------------------||-------------------||-----
|-------------------------||-------------------||-------------------||-----

-----------||----------------------||----------------------||-----------
-19-18-18--||---16-16-18-19-18-16--||---14-14-16-18-16-14--||---13-13-15
-----------||----------------------||----------------------||-----------
-----------||----------------------||----------------------||-----------
-----------||----------------------||----------------------||-----------
-----------||----------------------||----------------------||-----------

----15--||---13--------------------------------|
-17-----||-------------------------------------|
--------||------10-10-10-10-10-10-10-10-10-10--|
--------||-------------------------------------|
--------||-------------------------------------|
--------||-------------------------------------|
gtr 2

|-------|--|--|--|--|--|--|--||---6-----6--6--8--10-11--||---13-13-13-14
|-------|--|--|--|--|--|--|--||------6------------------||--------------
|-------|--|--|--|--|--|--|--||-------------------------||--------------
|-------|--|--|--|--|--|--|--||-------------------------||--------------
|-------|--|--|--|--|--|--|--||-------------------------||--------------
|-------|--|--|--|--|--|--|--||-------------------------||--------------
 
-16--||---18-21--||---20--------||----------||-------------||----------|
-----||----------||------22-----||------23--||---22--------||------23--|
-----||----------||---------22--||---23-----||------22-22--||---23-----|
-----||----------||-------------||----------||-------------||----------|
-----||----------||-------------||----------||-------------||----------|
-----||----------||-------------||----------||-------------||----------|
 
|-------------||----------||-------------||-------------------||--------
|---22--------||----------||-------------||---------------20--||---18---
|------22-----||------23--||---22--------||------------21-----||--------
|---------24--||---25-----||------23-----||---22-22-24--------||------15
|-------------||----------||---------25--||-------------------||--------
|-------------||----------||-------------||-------------------||--------
 
-----------------------------|--|--|--|--|--|--|--|--||-----------------
-----------------------------|--|--|--|--|--|--|--|--||---------------13
-----------------------------|--|--|--|--|--|--|--|--||---15----15-15---
-15-15-15-15-15-15-15-15-15--|--|--|--|--|--|--|--|--||------15---------
-----------------------------|--|--|--|--|--|--|--|--||-----------------
-----------------------------|--|--|--|--|--|--|--|--||-----------------

--------||-------------------||------21--||---20--------||----------||-----
-15-16--||---18-18-18-19-21--||---23-----||------22-----||------23--||---22
--------||-------------------||----------||---------22--||---23-----||-----
--------||-------------------||----------||-------------||----------||-----
--------||-------------------||----------||-------------||----------||-----
--------||-------------------||----------||-------------||----------||-----

--------||----------||-------------||----------||-------------||--------
--------||------23--||---22--------||----------||-------------||--------
-22-22--||---23-----||------22-----||------23--||---22--------||--------
--------||----------||---------24--||---25-----||------23-----||---22-22
--------||----------||-------------||----------||---------25--||--------
--------||----------||-------------||----------||-------------||--------
 
-----------||-------------------------------------|
-------20--||---18--------------------------------|
----21-----||-------------------------------------|
-24--------||------15-15-15-15-15-15-15-15-15-15--|
-----------||-------------------------------------|
-----------||-------------------------------------|
gtr3

|-------||---18-20-22----25--||------------------------------------18---
|-------||------------23-----||---------------------------19----19----19
|-------||-------------------||------------------18----18----18---------
|-------||-------------------||---------20----20----20------------------
|-------||-------------------||------21----21---------------------------
|-------||-------------------||---21------------------------------------
 
-18-21----21----25-23--||---21----21-----------||------14-19----19--||---18
-------23--------------||------21----21-19-18--||---16-------19-----||-----
-----------------------||----------------------||-------------------||-----
-----------------------||----------------------||-------------------||-----
-----------------------||----------------------||-------------------||-----
-----------------------||----------------------||-------------------||-----

-------18----18--||------15-17-18-20-18--|--|--|--|--|--|--|--|--|--|--|--|--|--|--|
----18----18-----||---17-----------------|--|--|--|--|--|--|--|--|--|--|--|--|--|--|
-18--------------||----------------------|--|--|--|--|--|--|--|--|--|--|--|--|--|--|
-----------------||----------------------|--|--|--|--|--|--|--|--|--|--|--|--|--|--|
-----------------||----------------------|--|--|--|--|--|--|--|--|--|--|--|--|--|--|
-----------------||----------------------|--|--|--|--|--|--|--|--|--|--|--|--|--|--|

|---18-20-22----25--||------------------------------------18----18-21---
|------------23-----||---------------------------19----19----19-------23
|-------------------||------------------18----18----18------------------
|-------------------||---------20----20----20---------------------------
|-------------------||------21----21------------------------------------
|-------------------||---21---------------------------------------------

-21----25-23--||---21----21-----------||------14-19----19--||---18------
--------------||------21----21-19-18--||---16-------19-----||---------18
--------------||----------------------||-------------------||------18---
--------------||----------------------||-------------------||-----------
--------------||----------------------||-------------------||-----------
--------------||----------------------||-------------------||-----------

-18----18--||------15-17-18-20-18--|
----18-----||---17-----------------|
-----------||----------------------|
-----------||----------------------|
-----------||----------------------|
-----------||----------------------|


VGJam Tabs Super Smash Bros. - "Hyrule Castle"
Tabs database last modified Tuesday, 01-Nov-2016 19:14:53 UTC.
Copyright © 1999 - 2016 VideoGameJam.com. All rights reserved.