VGJam Tabs Super Smash Bros.
Super Smash Bros.
"The Winner is..." - Guitar tab
Platform(s):Nintendo 64
Composed by:Various
Tabbed by:Jamal Smith-Graham
Last modified:2002-01-02
Print it:Original file (.TXT)
Hear it:MIDI file
Super Smash Brothers: The Winner is...
Transcribed by Jamal Smith-Graham (JamyJamal@aol.com)

Listen to the midi If you are having problems, this is my first tab i have written, so if
there are any mistakes please just email me with the corrects.
(PS) Ignore first and last -- for every bar (they are just there for decoration)!

e--------------------------------|--------1h2p1----|--------2h4p2-1--|----------2~2----|
B--4--4-4---4--4p3h4--1----------|--------------4--|-----------------|----------4~4----|
G------------------------1-------|-----------------|-----------------|-----------------|
D---------------------------4----|-----------------|-----------------|-----------------|
A--------------------------------|-----------------|-----------------|-----------------|
E--------------------------------|-----------------|-----------------|-----------------|

e--------------------------------|--------1h2p1----|--------------4--|----------2~2----|
B--4--4-4---4--4p3h4--1----------|--------------4--|--------2h3h4----|----------4~4----|
G------------------------1-------|-----------------|-----------------|-----------------|
D---------------------------4----|-----------------|-----------------|-----------------|
A--------------------------------|-----------------|-----------------|-----------------|
E--------------------------------|-----------------|-----------------|-----------------|

e--2~22-2-2-1----|---------------|-----------------|-----------------|
B-------------4--|--2~~~~~~~-----|-----------------|-----------------|
G----------------|---------------|-----------------|-----------------|
D----------------|---------------|--1~~~~~~~~3~----|-----------------|
A----------------|----------1~1--|--2~~~~~~~~4~1~--|--~~~~~~~~~~~~~--|
E----------------|----------2~---|-----------------|-----------------|

e--2~22-2-2-1----|---------------|------1----------|--2-2-2-1--------|
B-------------4--|--2~~~~~~~-----|--4-4------------|--4-4-4----------|
G----------------|---------------|-----------------|--------3--------|
D----------------|---------------|-----------------|-----------------|
A----------------|----------1~1--|-----------------|-----------------|
E----------------|----------2~---|-----------------|-----------------|

Repeat from the beginning as many times as you like!

VGJam Tabs Super Smash Bros. - "The Winner is..."
Tabs database last modified Tuesday, 01-Nov-2016 19:14:53 UTC.
Copyright © 1999 - 2016 VideoGameJam.com. All rights reserved.