VGJam Tabs Yoshi's Story
Yoshi's Story
"Yoshis on the Beach" - Guitar tab
Platform(s):Nintendo 64
Composed by:Kazumi Totaka
Soundtrack:Yoshi's Story Game Soundtrack (track 02)
Tabbed by:Deezer
Last modified:2001-06-29
Print it:Original file (.TXT)
Hear it:MIDI file
#----------------------------------PLEASE NOTE--------------------------------#
#This file is the author's own work and represents their interpretation of the#
#song. You may only use this file for private study, scholarship, or research.#
#-----------------------------------------------------------------------------#

Yoshi's Story (Nintendo 64)
"Yoshis on the Beach"

Originally composed by: Kazumi Totaka
------------------------------------------------------------------------------
Tabbed by: Deezer (deezer@usa.net)
For http://www.kontek.net/vgjam/
------------------------------------------------------------------------------

Another nice acoustic piece from Yoshi's Story. I'm confident that this
tab is fairly accurate (the frickin' steel drums are loud!). However, my
rhythm is probably way off. :) Have fun!

Symbols used:
 x  = muted string

Standard Tuning - (low to high) EADGBe


Intro:
======

  (C)     (C/G)        (C)      (C/G)
|-------0-------0----|-------0-------0-----|
|-------1-------1----|-------1-------1-----|
|-------0-------0----|-------0-------0-----|
|--------------------|---------------------|
|--3-----------------|--3------------------|
|----------3-------3-|----------3-------3--| x2

"Verse:"
========

Play one more repetition of "Intro," then this:


-------2-------2----|-------2-------2----|-------1-------1-----
--------------------|--------------------|---------------------
-------2-------2----|-------2-------2----|-------1-------1-----
--------------------|--------------------|---------------------
--3-----------------|--3-----------------|--3------------------
----------3-------3-|----------3-------3-|----------3-------3--

------------------------------|------------------------------
------------------------------|------------------------------
------------------------------|------------------------------
--------------------x---------|--------------------x---------
--3--------------3--x---------|--3--------------3--x---------
--------3---3----------3---3--|--------3---3----------3---3--

Play one measure of "Intro" again, then:


-------2-------2----|-------2-------2----|-------1-------1-----
--------------------|--------------------|---------------------
-------2-------2----|-------2-------2----|-------1-------1-----
--------------------|--------------------|---------------------
--3-----------------|--3-----------------|--3------------------
----------3-------3-|----------3-------3-|----------3-------3--

------------------------------|------------------------
------------------------------|------------------------
------------------------------|-------x-------x--------
--------------------x---------|-------x-------x--------
--3--------------3--x---------|-------x-------x--------
--------3---3----------3---3--|--3-------3-------3-----

"Bridge:"
=========

  (G5)
----------------------------------------
------3-------3-------------3----3---3--
------0-------0--------0----0----0---0--
----------0-----------------------------
----------------------------------------
--3---------3-------------3--------3----

-------------------------------------------------
-----1-----1---1----1-----1---------1----1----1--
-----2---------2----2-----2---------2---------2--
-----------------------0-------------------------
-------------0--------------------0--------------
--3-------------THE STEEL DRUMS ARE TOO LOUD.----

-----0-------2-------0-------------0---------0----------0--------------------
--3--1---------------1----------------------------------1------3----------3--
--2----------2--------------2---2--2-----2---2------2----------0----------0--
-----------------------------------------------------------------------------
-----------------------------------------------------------------------2-----
--------ARGH, LOUD STEEL DRUMS TOO ANNOYING. LET'S SKIP TO...--------3-------

This part:
==========

  G5                                          N.C.
--------------------------------------------------
--3----3----3----3----3--3--3----3----3-----------
--0----0----0----0----0--0--0----0----0-----x-----
--0----0----0----0----0--0--0----0----0-----x-0---
--------------------------------------------x-----
--3---------3---------3-----3----3----3-------4---

---------------------------------|---------------------------------
---------------------------------|---------------------------------
---------------------------------|---------------------------------
-----------------------------x-x-|----------------------------x-x--
--3---3---1--3---x-3---1--3--x-x-|-3---3---1--3---x-3---1--3--x-x--
---------------------------------|---------------------------------


Play one repetition of "Intro" yet again, then:

-------2-------2----|-------2-------2----|-------1-------1-----
--------------------|--------------------|---------------------
-------2-------2----|-------2-------2----|-------1-------1-----
--------------------|--------------------|---------------------
--3-----------------|--3-----------------|--3------------------
----------3-------3-|----------3-------3-|----------3-------3--

|------------------------------|     |------------------------
|------------------------------|     |------------------------
|------------------------------|     |-------x-------x--------
|--------------------x---------|     |-------x-------x--------
|--3--------------3--x---------|     |-------x-------x--------
|--------3---3----------3---3--| x3  |--3-------3-------3-----

Repeat from "Intro."

Last revised: 6/29/2001

VGJam Tabs Yoshi's Story - "Yoshis on the Beach"
Tabs database last modified Tuesday, 01-Nov-2016 19:14:53 UTC.
Copyright © 1999 - 2016 VideoGameJam.com. All rights reserved.