VGJam Tabs Yoshi's Story
Yoshi's Story
"Yoshi's Disco" - Guitar tab
Platform(s):Nintendo 64
Composed by:Kazumi Totaka
Soundtrack:Yoshi's Story Game Soundtrack (track 11)
Tabbed by:Deezer
Last modified:1999-09-01
Print it:Original file (.TXT)
Hear it:MIDI file
#----------------------------------PLEASE NOTE--------------------------------#
#This file is the author's own work and represents their interpretation of the#
#song. You may only use this file for private study, scholarship, or research.#
#-----------------------------------------------------------------------------#

Yoshi's Story (Nintendo 64)
"Name entry"

Originally composed by: Kazumi Totaka
------------------------------------------------------------------------------
Tabbed by: Deezer (deezer@usa.net)
For http://www.kontek.net/vgjam/
------------------------------------------------------------------------------


Symbols used:
 / = slide up


Standard Tuning - (low to high) EADGBe

   N.C.                Bm
|--9--9-9--9-9---9-9---7-7--|
|--7--7-7--7-7---7-7---7-7--|
|--7--7-7--7-7---7-7---7-7--|
|---------------------------|
|---------------------------|
|---------------------------| x2


   N.C.                Bm     N.C.
|--9--9-9--9-9---9-9---7-7-------------------------------|
|--7--7-7--7-7---7-7---7-7----8/9--9--9-9---9-8--9--9-9--|
|--7--7-7--7-7---7-7---7-7----8/9--9--9-9---9-8--9--9-9--|
|--------------------------------------------------------|
|--------------------------------------------------------|
|--------------------------------------------------------| x2


  N.C.
-------------------
--10--10-----9--9--
---6---6-----9--9--
-------------------
-------------------
-------------------


  D           N.C.             Dm N.C.
--------------------------------------------------------------
--10--10-10---10-----10----10--10-----10--10-10---10-10---10--
--11--11-11---11-----11----11--10/11--11--11-11---11-11---11--
--12--12-12---13--13-13----13--12/13--13--13-13---13-13---13--
--------------------------------------------------------------
--------------------------------------------------------------


  N.C.                Bm
--9--9-9--9-9---9-9---7-7--
--7--7-7--7-7---7-7---7-7--
--7--7-7--7-7---7-7---7-7--
---------------------------
---------------------------
---------------------------

Repeat from beginning.


Last revised: 9/1/99

VGJam Tabs Yoshi's Story - "Yoshi's Disco"
Tabs database last modified Tuesday, 01-Nov-2016 19:14:53 UTC.
Copyright © 1999 - 2016 VideoGameJam.com. All rights reserved.