VGJam Tabs Super Monkey Ball
Super Monkey Ball
"Monkey Golf" - Guitar tab
Platform(s):GameCube
Tabbed by:Deezer
Last modified:2005-01-25
Print it:Original file (.TXT)
#----------------------------------PLEASE NOTE---------------------------------#
#This file is the author's own work and represents their interpretation of the #
#song. You may only use this file for private study, scholarship, or research. #
#------------------------------------------------------------------------------#

Super Monkey Ball (Nintendo GameCube)
"Monkey Golf"

Originally composed by: ?
------------------------------------------------------------------------------
Tabbed by: Deezer (vgjam.staff AT gmail DOT com)
For http://www.kontek.net/vgjam/
------------------------------------------------------------------------------

Symbols used:
 / = slide up
 x = muted strings
 h = hammer-on

Standard tuning - EADGBe


Intro:
======

-----------
-----------
--[piano]--
-----------
-----------
-----------

Guitar:
=======
Add some random, funked-out muted strums if you like.

  C5      D#5    E5     F5      G5                  C5  B5 C5
|-----------------------------------------------------------------
|---------------------------------------------------13--12/13-----
|---------8------9------10------12--10-12--x-x-12---12--11/12-x-x-
|-10------8------9------10------12-----12--x-x-12---10---9/10-x-x-
|-10------6------7------8-------10-----10--x-x-10-------------x-x-
|-8---------------------------------------------------------------

  G5                C5 A#5 G5                       C5  B5 C5
 -------------------------------------------------------------|
 ---------------------------------------------------13--12/13-|
 -12--10-12-----12--------------12--10-12--x-x-12---12--11/12-|
 -12-----12-----12---10--8-5----12-----12--x-x-12---10---9/10-|
 -10-----10-----10---10--8-5----10-----10--x-x-10-------------|
 ---------------------8--6-3----------------------------------| x4

Solo:
=====

------------------------------------------------------
------------------------------------------------------
------------------------------------------------------
--------8----------------------------8----------------
-8-9-10-----10---10---8h10----8-9-10-----10---10---8--
------------------------------------------------------

---------------------------------------------------------
---------------------------------------------------------
---------------------------------------------------------
--------8----------------------------8--------8---8--10--
-8-9-10-----10---10---8h10----8-9-10-----10--------------
---------------------------------------------------------

---------------------------------------------------------
---------------------------------------------------------
---------------------------------------------------------
--------8----------------------------8-------------------
-8-9-10-----10---10---8-------8-9-10-----10---10---8-10--
---------------------------------------------------------

                                 G5/D  A#5
---------------------------------------------
---------------------------------------------
-------------------------------x-7---x-------
--------8-------------------10-x-5---x-8-----
-8-9-10-----10---10---8--10-10-x-5---x-8-----
---------------------------------------6-----


Last modified: 01/25/2005

VGJam Tabs Super Monkey Ball - "Monkey Golf"
Tabs database last modified Monday, 21-Jul-2014 21:11:05 CDT.
Copyright © 1999 - 2014 VideoGameJam.com. All rights reserved.