VGJam Tabs Yoshi's Story
Yoshi's Story
"Score tally" - Guitar tab
Platform(s):Nintendo 64
Composed by:Kazumi Totaka
Tabbed by:Deezer
Last modified:1999-09-09
Print it:Original file (.TXT)
Hear it:MIDI file
#----------------------------------PLEASE NOTE--------------------------------#
#This file is the author's own work and represents their interpretation of the#
#song. You may only use this file for private study, scholarship, or research.#
#-----------------------------------------------------------------------------#

Yoshi's Story (Nintendo 64)
"Score tally"

Originally composed by: Kazumi Totaka
------------------------------------------------------------------------------
Tabbed by: Deezer (deezer@usa.net)
For http://www.kontek.net/vgjam/
------------------------------------------------------------------------------


The MIDI of this is a bit off. Listen off of the game, and you'll catch on.


Symbols used:
 x = muffled string


Standard Tuning - (low to high) EADGBe


  Asus2    E
--------------
--0--0--0--0--
--2--2--2--1--
--2--2--2--2--
--0--0-----2--
--------------

* A                                           F#m     Bm             F#m
------------------------------------------------------2--2--x----2----------
--5----x--5----5--x--5--5----x--5----5--x--5--2----x--3--3--x----3--2----x--
--6----x--6----6--x--6--6----x--6----6--x--6--2----x--4--4--x----4--2----x--
--7----x--7----7--x--7--7----x--7----7--x--7--4----x--4--4--x----4--4----x--
--7----x--7----7--x--7--7----x--7----7--x--7--4----x--2--2--x----2--4----x--
--5----x--5----5--x--5--5----x--5----5--x--5--2----x----------------2----x--

  E
----------------
--0----0--0--0--
--1----1--1--1--
--2----2--2--2--
--2----2--2--2--
----------------

  A           D           C#m      F#m           Bm          E
--------------5--5--x--x--4--4--x----------------2--2--x--x--------------
--5--5--x--x--7--7--x--x--5--5--x--2----2--2--2--3--3--x--x--0--0--x--x--
--6--6--x--x--7--7--x--x--6--6--x--2----2--2--2--4--4--x--x--1--1--x--x--
--7--7--x--x--7--7--x--x--6--6--x--4----4--4--4--4--4--x--x--2--2--x--x--
--7--7--x--x--5--5--x--x--4--4--x--4----4--4--4--2--2--x--x--2--2--x--x--
--5--5--x--x-----------------------2----2--2--2--------------------------

   A                     Asus2
|--0----0--0----0--0--0--0----0--0----0--0--0--
|--2----2--2----2--2--2--0----0--0----0--0--0--
|--2----2--2----2--2--2--2----2--2----2--2--2--
|--2----2--2----2--2--2--2----2--2----2--2--2--
|--0----0--0----0--0--0--0----0--0----0--0--0--
|----------------------------------------------

   A                     Dm
 --0----0--0----0--0--0--1----1--1----1--1--1--|
 --2----2--2----2--2--2--3----3--3----3--3--3--|
 --2----2--2----2--2--2--2----2--2----2--2--2--|
 --2----2--2----2--2--2--0----0--0----0--0--0--|
 --0----0--0----0--0--0------------------------|
 ----------------------------------------------| x2

Repeat from *.


Last revised: 9/9/99

VGJam Tabs Yoshi's Story - "Score tally"
Tabs database last modified Tuesday, 01-Nov-2016 19:14:53 UTC.
Copyright © 1999 - 2016 VideoGameJam.com. All rights reserved.