VGJam Tabs Battlefield 1942
Battlefield 1942
"Main theme" - Guitar tab
Platform(s):Personal Computer / Macintosh
Tabbed by:Vincent Bouchard
Last modified:2005-02-12
Print it:Original file (.TXT)
Hear it:MIDI file
                          BATTLEFIELD 1942 - MAIN THEME

Transcribed by Vincent Bouchard

Gtr I (E A D G B E) - 'Trumpet'
Gtr II (E A D G B E) - 'Orchestra'
Gtr III (E A D G B E) - 'Orchestra Complete ( Gtr.II & Gtr.III )'

   4/4
    Gtr II
    Q  Q  E. E. E   Q  Q  E. E. E
||----------------|----------------||
||o---------------|---------------o||
||--------3--3----|----------------||
||--3--3----------|-6--6--5--5-----||
||o---------------|---------------o||
||----------------|----------------||


    Q  Q  E. E. E   Q  Q  E. E. E
||----------------|----------------||
||o---------------|---------------o||
||--------3--3----|-5--5--3--3-----||
||--3--3----------|----------------||
||o---------------|---------------o||
||----------------|----------------||


    Gtrs II, III
    Q  Q  E. E. E   Q  Q  E. E. E
||----------------|----------------||
||o---------------|---------------o||
||--------3--3----|----------------||
||--3--3----------|-6--6--5--5-----||
||o---------------|---------------o||
||----------------|----------------||


    Q  Q  E. E. E   Q  Q  E. E. E
||----------------|----------------||
||o---------------|---------------o||
||--------3--3----|-5--5--3--3-----||
||--3--3----------|----------------||
||o---------------|---------------o||
||----------------|----------------||


    Gtr I
                         |--3--|
     W           +H      q  q  q
||------------|------------------|
||o-----------|------------------|
||--10--------|-(10)----12-------|
||------------|------------13-10-|
||o-----------|------------------|
||------------|------------------|


   W           +H.       +E   s  s
|-----------|----------------------|
|-----------|----------------------|
|-10--------|-(10)------(10)-13-12-|
|-----------|----------------------|
|-----------|----------------------|
|-----------|----------------------|


                                         |--3--|
   Q.    s  s  Q.    s  s    Q.    s  s  Q  Q  Q
|-------------------------|----------------------|
|-------------11----------|----------------------|
|-10----12-13-------13-12-|-13----12-10-12-10----|
|-------------------------|-------------------13-|
|-------------------------|----------------------|
|-------------------------|----------------------|


                                         |--3--|
   Q.    s  s  Q.    s  s    Q.    s  s  Q  Q  Q
|-------------------------|----------------------|
|-------------11-------11-|-13----11----11-13----|
|-10----12-13-------13----|----------13-------13-|
|-------------------------|----------------------|
|-------------------------|----------------------|
|-------------------------|----------------------|


                                 |--3--|
   W           +Q.    +S   T  T  q  q  q
|-----------|----------------------------|
|-14--------|-(14)---(14)----------------|
|-----------|-------------17-18-17-------|
|-----------|----------------------18-15-|
|-----------|----------------------------|
|-----------|----------------------------|


   W           +H.       +E   s  s
|-----------|----------------------|
|-----------|----------------------|
|-15--------|-(15)------(15)-18-17-|
|-----------|----------------------|
|-----------|----------------------|
|-----------|----------------------|


                                         |--3--|
   Q.    s  s  Q.    s  s    Q.    s  s  Q  Q  Q
|-------------------------|----------------------|
|-------------16----------|----------------------|
|-15----17-18-------18-17-|-18----17-15-17-15----|
|-------------------------|-------------------18-|
|-------------------------|----------------------|
|-------------------------|----------------------|


                                             |--3--|
   Q.    s  s  S  S  Q.      S  S  Q   S  S  Q  Q  Q
|-------------14----14----|---------------------------||
|----------------18-------|-18-16-18-----------------o||
|-15----17-18-------------|-----------15----12-10-----||
|-------------------------|--------------18-------13--||
|-------------------------|--------------------------o||
|-------------------------|---------------------------||


   W
|-------*|
|-------*|
|-10----*|
|-------*|
|-------*|
|-------*|


Duration Legend
---------------
W - whole; H - half; Q - quarter; E - 8th; S - 16th; T - 32nd; X - 64th; a - acciaccatura
+ - note tied to previous; . - note dotted; .. - note double dotted
Uncapitalized letters represent notes that are staccato (1/2 duration)
Irregular groupings are notated above the duration line
Duration letters will always appear directly above the note/fret number it represents the
duration for.  Duration letters with no fret number below them represent rests.  Multi-
bar rests are notated in the form Wxn, where n is the number of bars to rest for.  Low
melody durations appear below the staff

Tablature Legend
----------------
 h   - hammer-on
 p   - pull-off
 b   - bend
 pb  - pre-bend
 r   - bend release (if no number after the r, then release immediately)
 /\  - slide into or out of (from/to "nowhere")
 s   - legato slide
 S   - shift slide
  - natural harmonic
[n]  - artificial harmonic
n(n) - tapped harmonic
 ~   - vibrato
 tr  - trill
 T   - tap
 TP  - trem. picking
 PM  - palm muting
\n/  - tremolo bar dip; n = amount to dip
 \n  - tremolo bar down
 n/  - tremolo bar up
/n\  - tremolo bar inverted dip
 =   - hold bend; also acts as connecting device for hammers/pulls
 <>  - volume swell (louder/softer)
 x   - on rhythm slash represents muted slash
 o   - on rhythm slash represents single note slash

Misc Legend
-----------
 |  - bar
||  - double bar
||o - repeat start
o|| - repeat end
*|  - double bar (ending)
 :  - bar (freetime)
 $  - Segno
 &  - Coda
Tempo markers -  = BPM(8/16=s8/s16), where s8 = swing 8ths, s16 = swing 16ths


***************************************************************************************
* Generated using Power Tab Editor by Brad Larsen - http://powertab.guitarnetwork.org *
***************************************************************************************

VGJam Tabs Battlefield 1942 - "Main theme"
Tabs database last modified Thursday, 17-Apr-2014 20:21:29 CDT.
Copyright © 1999 - 2014 VideoGameJam.com. All rights reserved.