VGJam Tabs Command & Conquer
Command & Conquer
"Act on Instinct" - Guitar, Bass tab
Platform(s):Personal Computer / Macintosh
Composed by:Frank Klepacki
Tabbed by:Deezer
Last modified:2000-12-11
Print it:Original file (.TXT)
#----------------------------------PLEASE NOTE--------------------------------#
#This file is the author's own work and represents their interpretation of the#
#song. You may only use this file for private study, scholarship, or research.#
#-----------------------------------------------------------------------------##

Command & Conquer (PC)
"Act on Instinct"

Originally composed by: Frank Klepacki
------------------------------------------------------------------------------
Tabbed by: Deezer (deezer@usa.net)
For http://www.kontek.net/vgjam/
------------------------------------------------------------------------------

Standard Tuning - (low to high) EADGBe


Most likely played on a bass guitar:

-----------------------------------1----4--
--3----2--4----3--3--3----3--3--3----------
-------------------------------------------
-------------------------------------------

-----------------------------------4----1--
--3----2--4----3--3--3----3--3--3----------
-------------------------------------------
-------------------------------------------


Sounds good on a regular guitar too:

-------------------------------------------
-------------------------------------------
-------------------------------------------
-------------------------------------------
----------------------------------------2--
--1----0--2----1--1--1----1--1--1--4-------

-------------------------------------------
-------------------------------------------
-------------------------------------------
-------------------------------------------
-----------------------------------2-------
--1----0--2----1--1--1----1--1--1-------4--


Last modified: 12/11/2000
VGJam Tabs Command & Conquer - "Act on Instinct"
Tabs database last modified Tuesday, 01-Nov-2016 19:14:53 UTC.
Copyright © 1999 - 2016 VideoGameJam.com. All rights reserved.