VGJam Tabs Command & Conquer: Red Alert
Command & Conquer: Red Alert
"Hell March" - Guitar, Bass tab
Platform(s):Personal Computer / Macintosh
Composed by:Frank Klepacki
Soundtrack:Command & Conquer: Red Alert Original Soundtrack (track 01)
Tabbed by:Deezer
Last modified:2009-12-26
Print it:Original file (.TXT)
#----------------------------------PLEASE NOTE---------------------------------#
#This file is the author's own work and represents their interpretation of the #
#song. You may only use this file for private study, scholarship, or research. #
#------------------------------------------------------------------------------#


Command & Conquer: Red Alert (PC)
"Hell March"

Originally composed by: Frank Klepacki
------------------------------------------------------------------------------
Tabbed by: Deezer (deezer AT videogamejam DOT com)
For http://www.videogamejam.com
------------------------------------------------------------------------------

Drop D Tuning - (low to high) DADGBe

Symbols used:
 p  = pull-off
 x  = muffled string
 /  = slide up
 \  = slide down
 PM = palm mute
 h  = hammer-on

Tempo: 120 BPM.

Triplet feel.


Bass intro:
===========

G||------------------------------------|------------------------------------||
D||------------------------------------|------------------------------------||
A||------------------------------------|------------------------------------||
D||-0-----0--1-p0--0--4-p0--0----------|------------------------------------||

   Play three times.


|------------------------------------|------------------------------------|
|------------------------------------|------------------------------------|
|------------------------------------|-------------------3----------------|
|-0-----0--1-p0--0--4-p0--0----------|----------3--4--5-----5--4--3-------|


|------------------------------------|------------------------------------|
|------------------------------------|------------------------------------|
|------------------------------------|------------------------------------|
|-0-----0--1-p0--0--4-p0--0----------|------------------------------------|


|------------------------------------|------------------------------------|
|------------------------------------|------------------------------------|
|------------------------------------|-------------------3----------------|
|-0-----0--1-p0--0--4-p0--0----------|----------3--4--5-----5--4--3-------|


||------------------------------------|------------------------------------||
||------------------------------------|------------------------------------||
||------------------------------------|------------------------------------||
||-0-----0--1-p0--0--4-p0--0----------|------------------------------------||

  Repeat.


Part 1
======

||------------------------------------|------------------------------------|
||----------------------------x--x--x-|-x--x--x--x--x--x--x--x--x--x--x--x-|
||----------------------------x--x--x-|-x--x--x--x--x--x--x--x--x--x--x--x-|
||----------------------------x--x--x-|-x--x--x--x--x--x--x--x--x--x--x--x-|
||-0-----0--1-p0--0--4-p0--0--x--x--x-|-x--x--x--x--x--x--x--x--x--x--x--x-|
||-0-----0--1-p0--0--4-p0--0--x--x--x-|-x--x--x--x--x--x--x--x--x--x--x--x-|


 |------------------------------------|------------------------------------||
 |----------------------------x--x--x-|-x--x--x----------------------------||
 |----------------------------x--x--x-|-x--x--x----------------------------||
 |----------------------------x--x--x-|-x--x--x----------------------------||
 |-0-----0--1-p0--0--4-p0--0--x--x--x-|-x--x--x-----------3----------------||
 |-0-----0--1-p0--0--4-p0--0--x--x--x-|-x--x--x--3--4--5-----5--4--3-------||

Repeat.


Part 2
======

||------------------------------------|------------------------------------|
||------------------------------------|------------------------------------|
||----------------------------x--x----|-------------------x--x-------------|
||----------------------------x--x----|-------------------x--x-------------|
||-0-----0--1-p0--0--4-p0--0--x--x--0-|-1-p0--0--4-p0--0--x--x--0--1-p0--0-|
||-0-----0--1-p0--0--4-p0--0--x--x--0-|-1-p0--0--4-p0--0--x--x--0--1-p0--0-|


 |------------------------------------|------------------------------------||
 |------------------------------------|------------------------------------||
 |----------x--x----------------------|-x--x-------------------------------||
 |----------x--x----------------------|-x--x-------------------------------||
 |-4-p0--0--x--x--0--1-p0--0--4-p0--0-|-x--x--0--1-p0--0-----------3-------||
 |-4-p0--0--x--x--0--1-p0--0--4-p0--0-|-x--x--0--1-p0--0--3--4--5-----5--4-||

Repeat.


Part 3
======

||------------------------------------|------------------------------------||
||------------------------------------|------------------------------------||
||------------------------------------|------------------------------------||
||------------------------------------|------------------------------------||
||-0--0--0--0--0--0--0--0--0--0--0--0-|-0--0--0--0--0--0--0--0--0--0--0--0-||
||-0--0--0--0--0--0--0--0--0--0--0--0-|-0--0--0--0--0--0--0--0--0--0--0--0-||
   PM PM PM    PM PM PM PM PM PM PM     PM PM PM    PM PM PM PM PM PM PM

Play four times.

Then, guitar one keeps repeating while guitar two enters:

||------------------------------------|
||------------------------------------|
||----------7-/8--8--8-\5--5--5-/7--7-|
||------------------------------------|
||----------5-/6--6--6-\3--3--3-/5--5-|
||-0----------------------------------|


 |-----------------------------------------------||
 |-----------------------------------------------||
 |-7-\12--12--12-\11--11--11-/14--14--14--14--14-||
 |-----------------------------------------------||
 |-5-\10--10--10-\-9---9---9-/12--12--12--12--12-||
 |-----------------------------------------------|| Play four times.



Part 4
======

||-------------------------------------|
||-------------------------------------|
||--------------------9--9--9--7--7----|
||-------------------------------------|
||-0h2-------2--------7--7--7--5--5----|
||-0h2-------2-----0-----------------0-|


 |-------------------------------------------|
 |-------------------------------------------|
 |--------------------10--10--10--10--10--10-|
 |-------------------------------------------|
 |-0h3-------3---------8---8---8---8---8---8-|
 |-0h3-------3-----0-------------------------|


 |-------------------------------------|
 |-------------------------------------|
 |--------------------9--9--9--7--7----|
 |-------------------------------------|
 |-0h2-------2--------7--7--7--5--5----|
 |-0h2-------2-----0-----------------0-|


 |------------------------------------||
 |------------------------------------||
 |------------------------------------||
 |------------------------------------||
 |-3-----3--3--3--3--6-----6--6--6--6-||
 |-3-----3--3--3--3--6-----6--6--6--6-||

Repeat.


Play Parts 1 - 4 again.


Part 5
======

[Variation of Part 2.]

|------------------------------------|------------------------------------|
|------------------------------------|------------------------------------|
|----------------------------x--x----|-------------------x--x-------------|
|----------------------------x--x----|-------------------x--x-------------|
|-0-----0--1-p0--0--4-p0--0--x--x--0-|-1-p0--0--4-p0--0--x--x--0--1-p0--0-|
|-0-----0--1-p0--0--4-p0--0--x--x--0-|-1-p0--0--4-p0--0--x--x--0--1-p0--0-|


|------------------------------------|------------------------------------|
|------------------------------------|------------------------------------|
|----------x--x----------------------|-x--x-------------------------------|
|----------x--x----------------------|-x--x-------------------------------|
|-4-p0--0--x--x--0--1-p0--0--4-p0--0-|-x--x--0--1-p0--0-----------3-------|
|-4-p0--0--x--x--0--1-p0--0--4-p0--0-|-x--x--0--1-p0--0--3--4--5-----5--4-|


|------------------------------------|------------------------------------|
|------------------------------------|------------------------------------|
|----------------------------x--x----|-------------------x--x-------------|
|----------------------------x--x----|-------------------x--x-------------|
|-0-----0--1-p0--0--4-p0--0--x--x--0-|-1-p0--0--4-p0--0--x--x--0--1-p0--0-|
|-0-----0--1-p0--0--4-p0--0--x--x--0-|-1-p0--0--4-p0--0--x--x--0--1-p0--0-|


|------------------------------------|------------------------------------|
|------------------------------------|------------------------------------|
|----------x--x----------------------|-x--x-------------------------------|
|----------x--x----------------------|-x--x-------------------------------|
|-4-p0--0--x--x--0--1-p0--0--4-p0--0-|-x--x--0-----------3----------------|
|-4-p0--0--x--x--0--1-p0--0--4-p0--0-|-x--x--0--3--4--5-----5--4--3-------|


|------------------------------------|---------------------------------|
|------------------------------------|---------------------------------|
|------------------------------------|---------------------------------|
|------------------------------------|---------------------------------|
|----------3-------------------------|-3--------0--0--1-p0--0--4-p0--0-|
|-3--4--5-----5--4--3-------3--4--5--|----5--4--0--0--1-p0--0--4-p0--0-|

[Marching sounds.]


Part 6
======

[Synth-sounding thing tabbed for guitar.]

Slightly faster tempo (about 122 BPM).

|-------14----15----------|--14----18----17----20----|
|-------------------17----|--------------------------|
|-------------------------|--------------------------|
|-------------------------|--------------------------|
|-------------------------|--------------------------|
|-------------------------|--------------------------|


|-------------------------|--22----------------------|
|-------------------------|--------------------------|
|-------------------------|--------------------------|
|-------------------------|--------------------------|
|-------------------------|--------------------------|
|-------------------------|--------------------------|


|-------14----15----------|--14----18----17----20----|
|-------------------17----|--------------------------|
|-------------------------|--------------------------|
|-------------------------|--------------------------|
|-------------------------|--------------------------|
|-------------------------|--------------------------|


|-------------18----------|--------------------------|
|-------------------------|--20----------------------|
|-------------------------|--------------------------|
|-------------------------|--------------------------|
|-------------------------|--------------------------|
|-------------------------|--------------------------|

[Orchestra hits(?) tabbed for guitar.]

||------------------------|-------------------------|
||------------------------|-------------------------|
||------------------------|-------------------------|
||--2---------------2-----|--3----------------------|
||--2---------------2-----|--3----------------------|
||--2---------------2-----|--3----------------------|


 |------------------------|-------------------------||
 |------------------------|-------------------------||
 |------------------------|-------------------------||
 |--2---------------2-----|--3---------------6------||
 |--2---------------2-----|--3---------------6------||
 |--2---------------2-----|--3---------------6------|| Repeat.


Rest for eight measures then repeat Part 6.
 

Revision history:
 First draft - 10/28/2000
 Re-tab - 12/26/2009
 Fixed copy-and-paste error in Part 4 - 01/04/2010
 
VGJam Tabs Command & Conquer: Red Alert - "Hell March"
Tabs database last modified Tuesday, 01-Nov-2016 19:14:53 UTC.
Copyright © 1999 - 2016 VideoGameJam.com. All rights reserved.