VGJam Tabs Diablo
Diablo
"Town theme (Tristam)" - Guitar tab
Platform(s):Personal Computer / Macintosh
Composed by:Matt Uelmen
Tabbed by:jk.huovinen
Last modified:2000-03-24
Print it:Original file (.TXT)
HI. We decided to play Diablo's town-theme on our gig, 
so I had to figure out how it goes. I thought I could tab 
out our version of it for you Diablo fans too. 
I've included the quarter note beats on the most of the 
tab, to make it more readable. 


If you have any comments, especially on the last A and Bb chords, e-mail me at


jk.huovinen@pp.phnet.fi


With Delay or a bunch of guitars 
( We used to Acoustics starting at ff and gradually going to pp)


Freely
e|---------------------|
b|-5---------4---------|
g|-2---------2---------|
D|-2---------1---------|
A|-0---------0---------|
E|---------------------|


***= That's how we played it. It sounds good with two backing
guitars. 


The first chord is absolutely A D6(no 3rd).  There's no D in the bass on the
first chord. 


e|-0---------6---------|-5-------6-------|
b|-3---------6---------|-3-------6-------|
g|-4---------3---------|-2-------3-------|
D|-----------0---------|-0-------0-------|
A|---------------------|-***-------------|
E|---------------------|-----------------|


e|----------------------------------------|
b|-12---10-----------------11---8---10----|
g|------------8---10---7------------------|
D|----------------------------------------|
A|----------------------------------------|
E|----------------------------------------|


e|-----------------------------11---------|
b|-10-------------------------------------|
g|----------12-----9----8-----------------|
D|----------------------------------------|
A|----------------------------------------|
E|----------------------------------------|




T= appr. 144




    Fmaj7(b5)                      F#7(add sus4)                  
   1   2   3   4   1   2   3   4   1   2   3   4   1   2   3   4
   |---|---|---|---|---|---|---|---|---|---|---|---|---|---|---|---|
e|-----0---0---0-------0---0---0-------0---0---0-------0---0---0---|
b|-----0---0---0-------0---0---0-------0---0---0-------0---0---0---|
g|---2---2---2---2---2---2---2---2---3---3---3---3---3---3---3---3-|
D|-3---------------3---------------4---------------4---------------|
A|-----------------------------------------------------------------|
E|-----------------------------------------------------------------|


Sometimes there are addons such as. (See hph on F#)


    Fmaj7(b5)                      F#7(add sus4)                  
   1   2   3   4   1   2   3   4   1   2    3   4   1   2   3   4
   |---|---|---|---|---|---|---|---|---|----|---|---|---|---|---|---|
e|-----0---0---0-------0---0---0-------020--0---0-------0---0---0---|
b|-----0---0---0-------0---0---0--------hp--0---0-------0---0---0---|
g|---2---2---2---2---2---2---2---2---3----3---3---3---3---3---3---3-|
D|-3---------------3---------------4----------------4---------------|
A|------------------------------------------------------------------|
E|------------------------------------------------------------------|


   This goes over that one. 
e|------------------------|
b|------------------------|
g|------------------------|
D|------------------3-----|
A|-2----------------------|
E|---2-1-----2------1-----|


There are more than on guitar in here, 
anyway this is how I like to play the break


   1   2   3   4   1   2   3   4
   |---|---|---|---|---|---|---|---|
e|-----0-------0---0------(0)------|
b|-------0-------0-0------(0)------|
g|-----------------7------(7)------|
D|---9-------9-----9------(9)------|
A|-9-------7-------5------(5)------|
E|---------------------------------|
 |
e|---------------------------------|
b|---------------------------------|
g|---------------------------------|
D|-4-------2-----------------------|
A|-----------------5------4--------|
E|---------------------------------|




A sus chord is a safe choice in here. All the instruments together 
give me an impression of the Hm9 chord. (I think the mandolin has
the minor 3rd in its part). Any way this is the way that I play this. 


   1   2   3   4   1   2   3   4   1   2   3   4   1   2   3   4
   |---|---|---|---|---|---|---|---|---|---|---|---|---|---|---|---|
e|---------2-------------2-----------------0---------------0-------|
b|-----2-----2-------------2-----2-----3-----3---------3-----3-----|
g|-------4-----4-------4-----4-------2---2-------2---2---2-------2-|
D|---4-----------4---4---------4---3-----------3---3-----------3---|
A|-2---------------2-----------------------------------------------|
E|-----------------------------------------------------------------|
 |                                                              
e|-----------------------------------------------------------------|
b|-----------------------------------------------------------------|
g|---------------------------------3-------------------------------|
D|-------------------------4---------------------------------------|
A|-2-------4-------5-----------------------------------------------|
E|-----------------------------------------------------------------|


And the second time. Notice the change in the F6(maj7) to F6sus2(maj7)
   1   2   3   4   1   2   3   4   1   2   3   4   1   2   3   4
   |---|---|---|---|---|---|---|---|---|---|---|---|---|---|---|---|
e|-------2---------------2-----------------0---------------0-------|
b|---------2-----2---------2-----2-----3-----3---------3-----3---3-|
g|-----4-----4---------4-----4-------2---2-------2---0---0---------|
D|---4---------4-----4---------4---3-----------3---3-----------3---|
A|-2---------------2-----------------------------------------------|
E|-----------------------------------------------------------------|
 |                                                              
e|-----------------------------------------------------------------|
b|-----------------------------------------------------------------|
g|---------------------------------3---------------5---------------|
D|-------------------------4---------------------------------------|
A|-2-------4-------5-----------------------------------------------|
E|-----------------------------------------------------------------|




   1   2   3   4   1   2   3   4   1   2   3   4   1   2   3   4
   |---|---|---|---|---|---|---|---|---|---|---|---|---|---|---|---|
e|-------0---------------0---------------2-------5-------8-------11|
b|---------1-----1---------1-----1-----1-------4-------7-------10--|
g|-----2-----2---------2-----2-------2-------5-------8-------11----|
D|---2---------2-----2---------2---1-------4-------7-------10------|
A|-0---------------0-----------------------------------------------|

E|-----------------------------------------------------------------|
 |                                                              
e|-----------------------------------------------------------------|
b|-----------------------------------------------------------------|
g|-------------------------------------------------2-------5-------|
D|-------------------------3-------1-------4-----------------------|
A|-0-------2-------3-----------------------------------------------|
E|-----------------------------------------------------------------|




   1   2   3   4   1   2   3   4   1   2   3   4   1   2   3   4
   |---|---|---|---|---|---|---|---|---|---|---|---|---|---|---|---|
e|--------<5>-<5>-<5>-<5>------------------------------------------|
b|-------0<5>-<5>-<5>-<5>------------------------------------------|
g|-----------------------------------------------------------------|
D|-----2-----------------------------------------------------------|
A|---2-------------------------------------------------------------|
E|-0---------------------------------------------------------------|
 |      Natural harmonics on both guitars                                    
e|-------<12>------------------------------------------------------|
b|-------<12>------------------------------------------------------|
g|-----------------------------------------------------------------|
D|-----------------------------------------------------------------|
A|-----------------------------------------------------------------|
E|-----------------------------------------------------------------|


Now each chord takes up two bars of time. And the chords go like this. 


   Am7  Hm(#5)/A*  Fmaj7   C       
e|-3------2--------0-------3---------------------------------------|
b|-1------3--------1-------1---------------------------------------|
g|-0------0--------2-------0---------------------------------------|
D|-2------4--------3-------2-------2^--2---------------------------|
A|-0------0----------------------------2---------------------------|
E|-------------------------------------0---------------------------|
                   
Order
Am7
Hm(#5)/A*
Am7
Hm(#5)/A*
Fmaj7
C
Fmaj7
E5 (that break)
Repeat


* In the actual song the G string is H, I think. 
That Hm(#5)/A is just a cool chord. 
Those chord changes are hard to play though


This is the awesome arpeggio on the Fmaj7. (The second time)
     Fmaj7                       C         
e|-----------------------------------------------------------------|
b|--------------------------------------------------13\------------|
g|-------------------------------9\------12\--------12\------------|
D|---------------2-3-5-7\--------10\-----14\-----------------------|
A|---------2-3-5---------------------------------------------------|
E|---1-3-5---------------------------------------------------------|


   Am                              Em
   1   2   3   4   1   2   3   4   1   2   3   4   1   2   3   4
   |---|---|---|---|---|---|---|---|---|---|---|---|---|---|---|---|
e|-------0---------------0---------------------0---------------0---|
b|-------1---1-----------1---1---------------0---0-----------0---0-|
g|-----2---2-----------2---2-----------0---0-----------0---0-------|
D|---2-----------2---2-----------2---2---------------2-------------|
A|-0---------------0---------------------2---------------2---------|
E|-------------0---------------0---0---------------0---------------|


   Hm7                             Fmaj7(b5)/A     E
   1   2   3   4   1   2   3   4   1   2   3   4   1   2   3   4
   |---|---|---|---|---|---|---|---|---|---|---|---|---|---|---|---|
e|-----------------------------------0-------0-----0-------0-------|
b|-----0-----------0-------0-----0-6-------6---------5-------5-----|
g|---2---2---2---2---2---2-----2-------4-------4-------4-------4---|
D|---------0---0-------------0-----------7-------7-------6-------6-|
A|-2-------------------2-------------------------------------------|
E|-----------------------------------------------------------------|


Am and Em again. 
And then
   1   2   3   4   1   2   3   4   
   |---|---|---|---|---|---|---|---|
e|--------<5>-<5>------------------|
b|--------<5>-<5>------------------|
g|---------------------------------|
D|---------------------------------|
A|-2---2---------------------------|
E|---------------------------------|




It sounds like this on two guitars. 
   1   2   3   4   1   2   3   4   1   2   3   4   1   2   3   4
   |---|---|---|---|---|---|---|---|---|---|---|---|---|---|---|---|
e|-----------------------------------------------------------------|
b|---7-------7-------7-------7-------7---7---7---7---7---7---7---7-|
g|-11------11------11------11------11--11--11--11--11--10--7---6---|
D|-------8-------8-------8-------8---------------------------------|
A|-----------------------------------------------------------------|
E|-----------------------------------------------------------------|
 |                                                              
e|-----------------------------------------------------------------|
b|-----------------------------------------------------------------|
g|-----------------------------------------------------------------|

D|-4---4---4---4---4---4---4---4---4---4---4---4---4---3-----------|
A|---------------------------------------------------------5---4---|
E|-----------------------------------------------------------------|
   Gradual Crescendo (= gradually pick louder). 


Repeat the theme. 


Ok this is my favorite part The rythm part is too complicated, (atleast for me)
to tab out so I'll just type in how it goes. 


On the background we have the B and E string been beaten. 




e|-0--------------------7------------------------|
b|-0--------------------0------------------------|
g|-----------------------------------------------|
D|-----------------------------------------------|
A|-----------------------------------------------|
E|-----------------------------------------------|
 |                                                    
 |  And on the top we have this
e|-12----11--------------------------------------|
b|------------13-12-----12--11---8-7-------------|
g|-----------------------------------(0)*--------|
D|-----------------------------------------------|
A|-----------------------------------------------|
E|-----------------------------------------------|
I'm not sure if the G was a mistake from the player but 
There's a G definetly. 




   1   2   3   4   1   2   3   4   1   2   3   4   1   2   3   4
   |---|---|---|---|---|---|---|---|---|---|---|---|---|---|---|---|
e|-----------------------------------------------------------------|
b|-2-----2-----2---3-----3-----3---2-----2-----2---3-----3-----3---|
g|---3-----3-----3---3-----3-----3---3-----3-----3---3-----3-----3-|
D|-----4-----4---------4-----4---------4-----4---------4-----4-----|
A|-----------------------------------------------------------------|
E|-----------------------------------------------------------------|
 | (mandolin listen for the strumming)                             
e|-14-14--14-etc---------------------------------------------------|
b|-----------------------------------------------------------------|
g|-----------------------------------------------------------------|
D|-----------------------------------------------------------------|
A|-----------------------------------------------------------------|
E|-----------------------------------------------------------------|




F# break (sound like this to me)
e|-0--|
b|-2--|
g|-3--|
D|-4--|
A|----|
E|----|


This is how I've played the end. 


   1   2   3   4   1   2   3   4   1   2   3   4   1   2   3   4
   |---|---|---|---|---|---|---|---|---|---|---|---|---|---|---|---|
e|-----------------------------------------------------------------|
b|-------0-----0---------0---0-------------0---------------0-------|
g|-----2---2-----2-----2---2-----2-----0---0---0-------0-----0-----|
D|---0-------0-------0---------0-----4---4---4---4---4---4-----4---|
A|-2---------------2---------------2---------------2-------------2-|
E|-----------------------------------------------------------------|
 | Play twice
e|-----------------------------------------------------------------|
b|-----------------------------------------------------------------|
g|-----------------------------------------------------------------|
D|-----------------------------------------------------------------|
A|-----------------------------------------------------------------|
E|-----------------------------------------------------------------|


   1   2   3   4   1   2   3   4   1   2   3   4   1   2   3   4
   |---|---|---|---|---|---|---|---|---|---|---|---|---|---|---|---|
e|-----------------------------------------------------------------|
b|-------0---0-----------0---0-------------0---------------0-------|
g|-----2---2-----2-----2---2-----2-----0---0---0-------0-----0-----|
D|---0---------0-----0---------0-----4---4---4---4---4---4-----4---|
A|-2---------------2---------------2---------------2-------------2-|
E|-----------------------------------------------------------------|
 |
e|-----------------------------------------------------------------|
b|-----------------------------------------------------------------|
g|-----------------------------------------------------------------|
D|-----------------------------------------------------------------|
A|-2---------------2-------4-------5-------------------------------|
E|---------2-------------------------------------------------------|
 |                                                              
e|-----------------------------------------------------------------| 
b|-----------------------------------------------------------------|
g|-----------------------------------------------------------------|
D|-----------------------------------------5-------4-------0-------|
A|-----------------------------------------------------------------|
E|---------------------------------3-------------------------------|


   1   2   3   4   1   2   3   4   1   2   3   4   1   2   3   4
   |---|---|---|---|---|---|---|---|---|---|---|---|---|---|---|---|
e|-----------------------------------------------------------------|
b|-------0---0-----------0---0-------------0---------------0-------|
g|-----2---2-----2-----2---2-----2-----0---0---0-------0-----0-----|
D|---0---------0-----0---------0-----4---4---4---4---4---4-----4---|
A|-2---------------2---------------2---------------2-------------2-|
E|-----------------------------------------------------------------|
 |
e|-----------------------------------------------------------------|
b|-----------------------------------------------------------------|
g|-----------------------------------------------------------------|
D|-----------------------------------------------------------------|
A|-2---------------2-----------------------------------------------|
E|---------2---------------5-------3-------------------------------|
 |
e|-----------------------------------------------------------------|
b|-----------------------------------------------------------------|
g|-----------------------------------------------------------------|
D|-----------------------------------------5-------4-------7-------|
A|-----------------------------------------------------------------|
E|---------------------------------3-------------------------------|






   1   2   3   4   1   2   3   4   1   2   3   4   1   2   3   4
   |---|---|---|---|---|---|---|---|---|---|---|---|---|---|---|---|
e|---------------------------------------0---------------0---------|
b|-------1-0-----0-------1-0-----0-----1---1-----1-----1---1-------|
g|-----2-----2---------2-----2-------2-------2-------2-------2---2-|
D|---2---------2-----2---------2---3-----------3---3-----------3---|
A|-0---------------0-----------------------------------------------|
E|-----------------------------------------------------------------|
 |
e|-----------------------------------------------------------------|
b|-----------------------------------------------------------------|
g|-----------------------------------------------------------------|
D|-----------------------------------------------------------------|
A|-0---------------0-------2-------3-------------------------------|
E|---------0-------------------------------------------------------|
 |
e|-----------------------------------------------------------------|
b|-----------------------------------------------------------------|
g|-----------------------------------------------------------------|
D|-2---------------------------------------3-------2---------------|
A|---------------------------------------------------------3-------|
E|-----------------------------------------------------------------|




   1   2   3   4   1   2   3   4   1   2   3   4   1   2   3   4
   |---|---|---|---|---|---|---|---|---|---|---|---|---|---|---|---|
e|---------------------------------------0---------------0---------|
b|-------1-0-----0-------1-0-----0-----1---1-----1-----0---0--*----|
g|-----2-----2---------2-----2-------2-------2-------2-------2---2-|
D|---2---------2-----2---------2---3-----------3---3-----------3---|
A|-0---------------0-----------------------------------------------|
E|-----------------------------------------------------------------|
 | * Pull-off thingy in here.
e|-----------------------------------------------------------------|
b|-----------------------------------------------------------------|
g|-----------------------------------------------------------------|
D|-----------------------------------------------------------------|
A|-0---------------0-----------------------------------------------|
E|---------0---------------3-------1-------------------------------|
 |
e|-----------------------------------------------------------------|
b|-----------------------------------------------------------------|
g|-----------------------------------------------------------------|
D|-----------------------------------------------------------------|
A|-0-----------------------------------------------2---------------|
E|---------------------------------1-------------------------------|




   Again this is the way that I play it. 
   1   2   3   4   1   2   3   4   1   2   3   4   1   2   3   4
   |---|---|---|---|---|---|---|---|---|---|---|---|---|---|---|---|
e|-----------------------------------------0---------------1-------|
b|-------3-------3-------3-------3-------2---2-----------3---3-----|
g|-----3---3---3-------3---3---3-------2-------2-------3-------3---|
D|---3-------3-------3-------3-------2-----------2---3-----------3-|
A|-1---------------1---------------0---------------1---------------|
E|-----------------------------------------------------------------|
 |
e|-----------------------------------------------------------------|
b|-----------------------------------------------------------------|
g|-3-----------------------3-------2-------------------------------|
D|---------3-------------------------------2-----------------------|
A|-----------------5-------------------------------4-------1-------|
E|-----------------------------------------------------------------|




   1   2   3   4   1   2   3   4   1   2   3   4   1   2   3   4
   |---|---|---|---|---|---|---|---|---|---|---|---|---|---|---|---|
e|---------3-------3-------3---3---3---3---------------------------|
b|-------0---0---0---0---0-0---0---0---0---------------------------|
g|-----0-------0-------0---0---0---0---0---------------------------|
D|---4---------------------4---4---4---4---------------------------|
A|-2-----------------------2---2---2---2---------------------------|
E|-----------------------------------------------------------------|
 |
e|-----------------------------------------------------------------|
b|-----------------------------------------------------------------|
g|-----------------------------------------------------------------|
D|-----------------------------------------------------------------|
A|-2---------------------------------------------------------------|
E|-----------------------------------------------------------------|


e|-----------------------------------------------|
b|-----------------------------------------------|
g|-----------------------------------------------|
D|-----------------------------------------------|
A|-----------------------------------------------|
E|-----------------------------------------------|

VGJam Tabs Diablo - "Town theme (Tristam)"
Tabs database last modified Tuesday, 01-Nov-2016 19:14:53 UTC.
Copyright © 1999 - 2016 VideoGameJam.com. All rights reserved.