VGJam Tabs Diablo
Diablo
"Town theme (Tristam)" - Guitar tab
Platform(s):Personal Computer / Macintosh
Composed by:Matt Uelmen
Tabbed by:blazingsoloz
Last modified:2002-03-20
Print it:Original file (.TXT)
Tabbed by: Soloz (blazingsoloz@hotmail.com)
                        Down Stroke (5)         (5)              [2 TIMES]	 
|-0---0-0---0---0---0----0---0---0---6---0---6---0-----<12>-----0-0---0----0--(?0)-|
|-0---0--0---0---0---0---0---0---5---5---5---5---0-<12><12><12>-0--0---0---0--(?0)-|
|-2---2---2-------2------2---2---7---7---7---7---2--------------2---2------2--(?2)-|
|-2---1-------1-------1--2---1---7---7---7---7---2--------------1-------1--2--(?1)-|
|--------------------------------5--(5)--5--(5)-------------------------------(? )-|
|-----------------------------------------------------------------------------(? )-|

Repeat many times.
|(1)0-0-0-0(1)0-0(0)1\2-0-0-0-0(2)0-0-0-2/1--0-0-0-0(1)-0-0(0)1\2-| 
|---0-0-0-0---0-0-------0-0-0-0---0-0--------0-0-0-0----0-0-------| 
|--2-2-2-2-2-2-2-2-----3-3-3-3-3-3-3-3------2-2-2-2-2--2-2-2------| 
|-3---------3-------3\4---------4-------4/3-----------3-------3\4-| 
|-----------------------------------------------------------------| 
|-----------------------------------------------------------------| 

Just to show that there are Hammer on Pull off later in that part, you’ll figure it out.
|--0-0h1p0-0-0(0)1\2-0-0-0-0h2p0-0-0--|
|--0-------0-0-------0-0-0-------0-0--|
|-2-2-----2-2-2-----3-3-3-------3-3-3-|
|----------------3\4------------------|
|-------------------------------------|

Ending of the part is something like this either chord is usable. I like 1 one.
|---0----0--0---2---0-|
|----0---0--2---2---0-|
|--3----3-3-2-or3-or3-|
|-4---(2)---4---4---4-|
|----------(4)--4---4-|
|---------------2---2-|

I am not sure if there are 2 guitars here so I did everything in 1 guitar playable part.
|--2-2-2-2-2-2-2---2---0-0-1-1-0-0-0-1---2-2-2-2-2-2-----2---0-0-1-1-0-0-0-1--|
|---3-------3---------3-3---3---3-3---3---3-------3---------3-3---3---3-3---3-|
|-----4-------4------2----------------------4-------4------2------------------|
|-4-----4-4-----4-4-3------3-3-------3--4-----4-4-----4-4-3------3-3-------3--|
|-----------------------------------------------------------------------------|
|-----------------------------------------------------------------------------|

                [  ] This little part is wrong for sure.
|-----0--------0-0-----2----5----8----11-<(12)>-<19>--<24>-|
|----0-1------0---4--1----4----7----10--- <12>--<19>--<24>-|
|---2---2----2--2-----2----5----8----11---<12>--<19>--<24>-|
|--2-----2--2-------1----4----7----10-----<12>--<19>--<24>-|
|-0-------0-------------------------------<12>--<19>--<24>-|
|----------------------------------------------------------|

Not sure about <17>.                         [ 2     TIMES ]
|-3---2---3---2---0---0---------------<12>---3--------<12>-2------|
|-1---3---1---3---1---1------------<12>------1---<12>------3------|
|-0---0---0---0---2---0------------<12>------0------<17>---0------|
|-2---4---2---4---3---2----------------------2--<7>--------4------|
|(0)-(0)-(0)-(0)-(0)-(0)--------------------(0)-----------(0)-----|
|---------------------------7/<0>---------------------------------|

"*" chord is played in there somewhere 1 Guitar chords 2 Guitar Arp.
                           *
|--0------------------3-5//0----15//-20//---0------0------0-----------|
|--1-----------------------1-8//------------1---0---0--0---0----------|
|--2-----------------------0----------------2--2-2----2-0-------------|
|--3-------------2-3-5-----2----------------3-----3------3------------|
|-(0)-------2-3-5---------(0)--------------(0)----------------2b3r2-2-|
|------1-3-5--------------------------------------------------------0-|

|------0---------0--------2--0---2--0--------------------0---0--0---0---|
|-----1---1-----1--1-----0-0----0-0--0---0-----0---0----6-0-6-0--5---5--|
|----2---2-----2--2-----0---0--0---0----2-2---2-2---2-------------4---4-|
|------2----2----2-----------2---2--2------0-0---0---0-----7---7---6---6|
|--0----------0-------2---2------------2----2-----2---2-----------------|
|----------0---------0-0------0-----------------------------------------|

                                                           [ x4][ x5]
|------0---------0--------2--0---2--0---------<7>--------------------------------|
|-----1---1-----1--1-----0-0----0-0--0--------<7>---<12>---7-7-----7----7--7-7---|
|----2---2-----2--2-----0---0--0---0----------<7>-------------6--11---10--7-6----|
|------2----2----2-----------2---2--2---------<7>--------------8-----------------|
|--0----------0-------2---2------------2b3----<7>----------9-----9----8---5-4----|
|----------0---------0-0------0---------------<7>--------------------------------|


I figured out some more but too lazy to tab now:) perhaps some other time

VGJam Tabs Diablo - "Town theme (Tristam)"
Tabs database last modified Tuesday, 01-Nov-2016 19:14:53 UTC.
Copyright © 1999 - 2016 VideoGameJam.com. All rights reserved.