VGJam Tabs Diablo
Diablo
"Town theme (Tristam)" - Guitar tab
Platform(s):Personal Computer / Macintosh
Composed by:Matt Uelmen
Tabbed by:yasspr
Last modified:2004-08-31
Print it:Original file (.TXT)
TRISTRAM
By Matt Uelmen


! 	= accent
~~ 	= let ring
p 	= pull-off
h 	= hammer-on
<12> 	= (natural) harmonic
/ or \ 	= slide up/down
(1) 	= optional note


PART A

 ?sus2      A-3add#11   
|--0--0--0~~--0--0--0~~---0--0--0~~--0--0--0~~-|
|--0--0--0~~--4--4--4~~---0--0--0~~--4--4--4~~-|
|--2--2--2~~--2--2--2~~---2--2--2~~--2--2--2~~-|
|--2--2--2~~--1--1--1~~---2--2--2~~--1--1--1~~-|
|--0----------0-----------0----------0---------|
|----------------------------------------------|

   Ab6sus4    A#b5        Dsus2      A#b5
|--0--0--0~~--6--6--6~~---0--0--0~~--6--6--6~~-|
|--3--3--3~~--5--5--5~~---3--3--3~~--5--5--5~~-|
|--2--2--2~~--7--7--7~~---2--2--2~~--7--7--7~~-| 
|--3----------8--8--8~~---0----------8--8--8~~-|
|--0----------------------0--------------------|
|----------------------------------------------|


|--0-----<12>-<12>--0--0--0~~---0--0--0~~--0--0--0~~-|
|--0-<12><12>-------4--4--4~~---0--0--0~~--4--4--4~~-|
|--2----------------2--2--2~~---2--2--2~~--2--2--2~~-|
|--2----------------1--1--1~~---2--2--2~~--1--1--1~~-|
|--0----------------0-----------0----------0---------|
|----------------------------------------------------|

Flute part (these are only the notes, not the correct rhythm)

|----------------------------------------|
|-12---10-----------------11---8---10----|
|------------8---10---7------------------|
|----------------------------------------|
|----------------------------------------|
|----------------------------------------|

|-----------------------------11---------|
|-10-------------------------------------|
|----------12-----9----8-----------------|
|----------------------------------------|
|----------------------------------------|
|----------------------------------------|



PART B
 
0:43

|-(1)--0---0---0-------0---0---0-1/2---0---0---0-------0---0---0---2\-|
|------0---0---0-------0---0---0-------0---0---0-------0---0---0------| 
|----2---2---2---2---2---2---2-------3---3---3---2---3---3---3---3----| Play 2x
|--3---------------3-------------3/4---------------4---------------4\-|
|---------------------------------------------------------------------|
|---------------------------------------------------------------------|
                                    !                                  !
|-(1)--0---0---0-------0h1p0--------0-----0---0---0-------0h2p0--------0---|
|------0---0---0-------0--(0)-------0-----0---0---0-------0--(0)-------0---|
|----2---2---2---2---2--------2---2-----3---3---3---2---3--------3---3-----|
|--3---------------3------------3---3/4---------------4------------4---4\--|
|--------------------------------------------------------------------------|
|--------------------------------------------------------------------------|

|-(1)--0---0---0-------0---0---0-1/2---0-------0---0~~----|
|------0---0---0-------0---0---0-------0-------0---0~~----|
|----2---2---2---2---2---2---2-------3---3---3---3-2~~----|
|--3---------------3-------------3/4-------2-------0~~----|
|--------------------------------------------------2--(4)-|
|---------------------------------------------------------|
 
Bass line (again only the notes, not the rhythm)

D|------------------3--------4---2------------|
A|-2----------------------------------5---4---|
E|---2-1-----2------1-------------------------|

 
Part C

1:10

 |----------------------------------------0---------------0---------|
 |--------0---------------0-------------3---3-----3-----3---3-----3-|
 |------2---2-----2-----2---2-----2---2-------2-------2-------2-----| Play 2x
 |----4-------4-------4-------4-----3-----------3---3-----------3---|
 |--2-----------2---2-----------2-----------------------------------|
 |------------------------------------------------------------------|
  Bass line: 
G|--------------------------------------------------(2)---------------|
D|--------------------------4-------3---------------------------------|  
A|--2-------4-------5-------------------------------------------------|


 |--------------------------------------2-------5-------8---------11------<12>--<7>-<5>----|
 |------0-------0-------0-------0---------1-------4-------7----------10---<12>--<7>-<5>----|
 |--------2-------2-------2---2---2---2-------5-------8--------11---------<12>--<7>-<5>----|
 |----2-------2-------2-----2-------1-------4------/7------/10-----------------------------|
 |--0-------2-------3----------------------------------------------------------------------|
 |-----------------------------------------------------------------------------------------|
  Bass line: 
G|--------------------------------------------------2-------5-------------(4)--------------|
D|--------------------------2-------1-------4----------------------------------------------|  
A|--0-------2-------3----------------------------------------------------------------------|

Part D

1:35

   Am7        
|--3--3--3~~--2--2--2~~---3--3--3~~--3--3--3~~-|
|--1--1--1~~--3--3--3~~---1--1--1~~--1--1--1~~-|
|--0--0--0~~--0--0--0~~---0--0--0~~--0--0--0~~-|
|--2--2--2~~--4--4--4~~---2--2--2~~--4--4--4~~-|
|--0----------0-----------0----------0---------|
|----------------------------------------------|
   Fmaj7      C
|--0--0--0~~--0--0--0~~-----------------<12>---|
|--1--1--1~~--1--1--1~~-------------<12>-------|
|--2--2--2~~--0--0--0~~-------------<12>-------| 
|--3--3--3----2--2--2~~------------------------|
|-(3)--------(3)-------------------------------|
|-(1)-----------------------7\0~~--------------|


|--3--3--3~~--2--2--2~~---3--3--3~~--3--3--3~~-|
|--1--1--1~~--3--3--3~~---1--1--1~~--1--1--1~~-|
|--0--0--0~~--0--0--0~~---0--0--0~~--0--0--0~~-|
|--2--2--2~~--4--4--4~~---2--2--2~~--4--4--4~~-|
|--0----------0-----------0----------0---------|
|----------------------------------------------|

|--0--0--0~~--0--0--0~~---0--0--0~~------------|
|--1--1--1~~--1--1--1~~---1--1--1~~------------|
|--2--2--2~~--0--0--0~~---2--2--2~~------------| 
|--3--3--3----2--2--2~~---3--3--3~~------------|
|-(3)--------(3)---------(3)-------------------|
|-(1)--------------------(1)----------7\0~~----|
   |
   v
Arpeggio:

|-----------------------------------------------------------------|
|--------------------------------------------------13~~-----------|
|-------------------------------9~~~----12~~-------12~~-----------|
|---------------2-3-5-7~~-------10~~----14~~----------------------|
|---------2-3-5---------------------------------------------------|
|---1-3-5---------------------------------------------------------|


Part E

2:28

|-------0---------------0---------------------0---------------0---|
|-------1---1-----------1---1---------------0---0-----------0---0-|
|-----2---2-----------2---2-----------0---0-----------0---0-------|
|---2-----------2---2-----------2---2---------------2-------------|
|-0---------------0---------------------2---------------2---------|
|-------------0---------------0---0---------------0---------------|

      !           !       !
|---------------------------------1p0-----1p0-----0-------0-------|
|-----0-----------0-------0-----0-----0-------0-----5-------5-----|
|---2---2---2---2---2---2-----2---------2-------2-----4-------4---|
|---------0---0-------------0---------------------------6-------6-|
|-2-------------------2-------------------------------------------|
|-----------------------------------------------------------------|

|-------0---------------0---------------------0---------------0---|
|-------1---1-----------1---1---------------0---0-----------0---0-|
|-----2---2-----------2---2-----------0---0-----------0---0-------|
|---2-----------2---2-----------2---2---------------2-------------|
|-0---------------0---------------------2---------------2---------|
|-------------0---------------0---0---------------0---------------|

|--------<7>~~--------------------|
|--------<7>~~--------------------|
|--------<7>~~--------------------|
|---------------------------------|
|-2---2---------------------------|
|---------------------------------|


     Gtr. 1
|-----------------------------------------------------------------|
|---7-------7-------7-------7-------7---7---7---7---7---7---7---7-|
|-11------11------11------11------11--11--11--11--11--10--7---6---|
|-------8-------8-------8-------8---------------------------------|
|-----------------------------------------------------------------|
|-----------------------------------------------------------------|
|   Gtr. 2
|-----------------------------------------------------------------|
|-----------------------------------------------------------------|
|-----------------------------------------------------------------|
|-4---4---4---4---4---4---4---4---4---4---4---4---4---3-----------|
|---------------------------------------------------------5---4---|
|-----------------------------------------------------------------|

Repeat Part C

Part F

3:17

     Gtr. 1
|-<12>-<12>-<12><12>-<12>--<12>-<12>--<12>-<12>---<12>-<12>-<12>|
|-<12>-<12>-<12><12>-<12>--<12>-<12>--<12>-<12>---<12>-<12>-<12>|
|-<12>-<12>-<12><12>-<12>--<12>-<12>--<12>-<12>---<12>-<12>-<12>|
|---------------------------------------------------------------|
|---------------------------------------------------------------|
|---------------------------------------------------------------|
|   Gtr. 2        
|-12----11--------------------------------------|
|------------13-12-----12--11---8-7-------------|
|-----------------------------------(0)---------|
|-----------------------------------------------|
|-----------------------------------------------|
|-----------------------------------------------|

3:50

     Gtr. 1
|-----------------------------------------------------------------|
|-2-----2-----2---3-----3-----3---2-----2-----2---3-----3-----3---|
|---3-----3-----3---3-----3-----3---3-----3-----3---3-----3-----3-|
|-----4-----4---------4-----4---------4-----4---------4-----4-----|
|-----------------------------------------------------------------|
|-----------------------------------------------------------------|
|   Gtr. 2                             
|-14-14--14-etc---------------------------------------------------|
|-----------------------------------------------------------------|
|-----------------------------------------------------------------|
|-----------------------------------------------------------------|
|-----------------------------------------------------------------|
|-----------------------------------------------------------------|

Part G

4:00

|------------------------0-3---------------0-2---------------0-0-------|
|-------0--------------------0---0-------------0---0-------------0---0-|
|-----2-----2---2------2-------2---------2-------2---------2-------2---|
|---0---------0------0-----------------0-----------------0-------------|
|-2----------------2-----------------2-----------------2---------------|
|----------------------------------------------------------------------|
 Play twice


|------------------------0-3---------------0-2---------------0-0-------|
|-------0--------------------0---0-------------0---0-------------0---0-|
|-----2-----2---2------2-------2---------2-------2---------2-------2---|
|---0---------0------0-----------------0-----------------0-------------|
|-2----------------2-----------------2-----------------2---------------|
|----------------------------------------------------------------------|
|
|-----------------------------------------------------------------|
|-----------------------------------------------------------------|
|-----------------------------------------------------------------| Bass line
|-----------------------------------------------------------------|
|-2---------------2-------4-------5-------------------------------|
|---------2-------------------------------------------------------|
|
|-----------------------------------------------------------------| 
|-----------------------------------------------------------------|
|-----------------------------------------------------------------|  Flute
|-----------------------------------------5-------4-------0-------|
|-----------------------------------------------------------------|
|---------------------------------3-------------------------------|



|-----------------------------------------------------------------|
|-------0---0-----------0---0-------------0---------------0-------|
|-----2---2-----2-----2---2-----2-----0---0---0-------0-----0-----|
|---0---------0-----0---------0-----4---4---4---4---4---4-----4---|
|-2---------------2---------------2---------------2-------------2-|
|-----------------------------------------------------------------|
|
|-----------------------------------------------------------------|
|-----------------------------------------------------------------|
|-----------------------------------------------------------------| Bass line
|-----------------------------------------------------------------|
|-2---------------2-----------------------------------------------|
|---------2---------------5-------3-------------------------------|
|
|-----------------------------------------------------------------|
|-----------------------------------------------------------------|
|-----------------------------------------------------------------| Flute
|-----------------------------------------5-------4-------7-------|
|-----------------------------------------------------------------|
|---------------------------------3-------------------------------|



|---------------------------------------0---------------0---------|
|-------1-0-----0-------1-0-----0-----1---1-----1-----1---1-------|
|-----2-----2---------2-----2-------2-------2-------2-------2---2-|
|---2---------2-----2---------2---3-----------3---3-----------3---|
|-0---------------0-----------------------------------------------|
|-----------------------------------------------------------------|
|
|-----------------------------------------------------------------|
|-----------------------------------------------------------------|
|-----------------------------------------------------------------| Bass line
|-----------------------------------------------------------------|
|-0---------------0-------2-------3-------------------------------|
|---------0-------------------------------------------------------|
|
|-----------------------------------------------------------------|
|-----------------------------------------------------------------|
|-----------------------------------------------------------------| Flute
|-2---------------------------------------3-------2---------------|
|---------------------------------------------------------3-------|
|-----------------------------------------------------------------|


|---------------------------------------0---------------0---------|
|-------1-0-----0-------1-0-----0-----1---1-----1-----0---0--*----|
|-----2-----2---------2-----2-------2-------2-------2-------2---2-|
|---2---------2-----2---------2---3-----------3---3-----------3---|
|-0---------------0-----------------------------------------------|
|-----------------------------------------------------------------|
| * Pull-off thingy in here.                                 
|-----------------------------------------------------------------|
|-----------------------------------------------------------------|
|-----------------------------------------------------------------| Bass line
|-----------------------------------------------------------------|
|-0---------------0-----------------------------------------------|
|---------0---------------3-------1-------------------------------|
|
|-----------------------------------------------------------------|
|-----------------------------------------------------------------|
|-----------------------------------------------------------------| Flute
|-----------------------------------------------------------------|
|-0-----------------------------------------------2---------------|
|---------------------------------1-------------------------------|



|-----------------------------------------0---------------1-------|
|-------3-------3-------3-------3-------2---2-----------3---3-----|
|-----3---3---3-------3---3---3-------2-------2-------3-------3---|
|---3-------3-------3-------3-------2-----------2---3-----------3-|
|-1---------------1---------------0---------------1---------------|
|-----------------------------------------------------------------|
|
|-----------------------------------------------------------------|
|-----------------------------------------------------------------|
|-3-----------------------3-------2-------------------------------| Bass line
|---------3-------------------------------2-----------------------|
|-----------------5-------------------------------4-------1-------|
|-----------------------------------------------------------------|



|---------3-------3-------3---3---3---3---------------------------|
|-------0---0---0---0---0-0---0---0---0---------------------------|
|-----0-------0-------0---0---0---0---0---------------------------|
|---4---------------------4---4---4---4---------------------------|
|-2-----------------------2---2---2---2---------------------------|
|-----------------------------------------------------------------|
|
|-----------------------------------------------------------------|
|-----------------------------------------------------------------|
|-----------------------------------------------------------------| Bass line
|-----------------------------------------------------------------|
|-2---------------------------------------------------------------|
|-----------------------------------------------------------------|

VGJam Tabs Diablo - "Town theme (Tristam)"
Tabs database last modified Tuesday, 01-Nov-2016 19:14:53 UTC.
Copyright © 1999 - 2016 VideoGameJam.com. All rights reserved.