VGJam Tabs Viewtiful Joe
Viewtiful Joe
"Viewtiful World" - Guitar tab
Platform(s):GameCube
Composed by:Do As Infinity (CD single)
Tabbed by:Deezer
Last modified:2004-06-26
Print it:Original file (.TXT)
#----------------------------------PLEASE NOTE---------------------------------#
#This file is the author's own work and represents their interpretation of the #
#song. You may only use this file for private study, scholarship, or research. #
#------------------------------------------------------------------------------#


Viewtiful Joe (Nintendo GameCube)
"Viewtiful World"

Originally composed by: Do As Infinity
------------------------------------------------------------------------------
Tabbed by: Deezer (vgjam.staff AT gmail DOT com)
For http://www.kontek.net/vgjam/
------------------------------------------------------------------------------

Tuning: Down one half step - EbAbDbGbBbeb


Intro:
======
Before the second guitar comes in, you can hear an acoustic guitar play this:

eb|---------2---
Bb|---------3---
Gb|---------4---
Db|-4---4---4---
Ab|-2---2---2---
Eb|-2-----------

...and the rest of it can't be heard over the electric guitar.

Rhy. Fig. 1:
============

9/8!

eb|-----------------------------|-----------------------------|
Bb|-----------------------------|-----------------------------|
Gb|-----------------------------|-----------------------------|
Db|-2/4---4---2/4---4---4--5--2-|-2/4---4---2/4---4---4--5--2-|
Ab|-2/4---4---2/4---4---4--5--2-|-2/4---4---2/4---4---4--5--2-|
Eb|-0/2---2---0/2---2---2--3--0-|-0/2---2---0/2---2---2--3--0-|


Pre-chorus:
===========

10/8!!!

eb|--------------------------------------|
Bb|-----------------5-----5--------------|
Gb|--------------------------8---6---8---|
Db|-7---x-x-7----------------------------|
Ab|-7---x-x-7----------------------------|
Eb|-5---x-x-5----------------------------| x3

4/4

eb|--------------
Bb|--------------
Gb|--------------
Db|-7---x-x-7----
Ab|-7---x-x-7----
Eb|-5---x-x-5----

Chorus:
=======

4/4

eb|----------------------------------------------------------------|
Bb|----------------------------------------------------------------|
Gb|-7---7-7---7-7--------------------------------------------------|
Db|-7---7-7---7-7---7---7-7---7-7---9---9-9---9-9---5---5-5---5-5--|
Ab|-5---5-5---5-5---7---7-7---7-7---9---9-9---9-9---5---5-5---5-5--|
Eb|-----------------5---5-5---5-5---7---7-7---7-7---3---3-3---3-3--| x4


Solo:
=====
Played over Rhy. Fig. 1


Last chorus:
============

eb|----------------------------------------------------------------|
Bb|----------------------------------------------------------------|
Gb|-7---7-7---7-7--------------------------------------------------|
Db|-7---7-7---7-7---7---7-7---7-7---9---9-9---9-9---5---5-5---5-5--|
Ab|-5---5-5---5-5---7---7-7---7-7---9---9-9---9-9---5---5-5---5-5--|
Eb|-----------------5---5-5---5-5---7---7-7---7-7---3---3-3---3-3--| x3

eb|---------------------------------------------------------------------
Bb|---------------------------------------------------------------------
Gb|-7---7-7---7-7-------------------------------------------------------
Db|-7---7-7---7-7---7---7-7---7-7---9---9-9---9-9---5---5-5-5---5-5-5---
Ab|-5---5-5---5-5---7---7-7---7-7---9---9-9---9-9---5---5-5-5---5-5-5---
Eb|-----------------5---5-5---5-5---7---7-7---7-7---3---3-3-3---3-3-3---

Outro:
======

(acoustic)
eb|---------2---
Bb|---------3---
Gb|---------4---
Db|-4---4---4---
Ab|-2---2---2---
Eb|-2-----------


Last revised: 06/26/2004

VGJam Tabs Viewtiful Joe - "Viewtiful World"
Tabs database last modified Thursday, 17-Apr-2014 20:21:29 CDT.
Copyright © 1999 - 2014 VideoGameJam.com. All rights reserved.