VGJam Tabs Doom
Doom
"Episode 1, map 4" - Guitar tab
Platform(s):Personal Computer / Macintosh
Composed by:Bobby Prince
Tabbed by:Amp
Last modified:2002-11-10
Print it:Original file (.TXT)
Hear it:MIDI file
Doom, by id Software
Map e1m4

Even though I hated this level, this is a good song to play. I put it in
Drop-D tuning to make it a little easier to play. Just play everything straight
through, and start over. The second time around, theres a higher synth part. To 
play it too, its generally on the G-string, and one fret lower than the powerchord
(at the beginning, it would look like "G |--3----1--1----3--|")


e |-----------------------------------------------------------|
B |-----------------------------------------------------------|
G |-----------------------------------------------------------|
D |--4----2--2----4----2--2----4----2--2--4----5----4----2----|
A |--4----2--2----4----2--2----4----2--2--4----5----4----2----|
D |--4----2--2----4----2--2----4----2--2--4----5----4----2----|

e |-----------------------------------------------------------|
B |-----------------------------------------------------------|
G |-----------------------------------------------------------|
D |--4----2--2----4----2--2----4----2--2--4----5----4----2----|
A |--4----2--2----4----2--2----4----2--2--4----5----4----2----|
D |--4----2--2----4----2--2----4----2--2--4----5----4----2----|

e |-----------------------------------------------------------|
B |-----------------------------------------------------------|
G |-----------------------------------------------------------|
D |--4----2--2----4----2--2----4----2--2--4----5----4----2----|
A |--4----2--2----4----2--2----4----2--2--4----5----4----2----|
D |--4----2--2----4----2--2----4----2--2--4----5----4----2----|

e |--------------------------------------------|
B |--------------------------------------------|
G |--------------------------------------------|
D |--4----2--2----4----2--2----4----2--2--4----|
A |--4----2--2----4----2--2----4----2--2--4----|
D |--4----2--2----4----2--2----4----2--2--4----|

e |-----------------------------------------|-----------------------------------------|
B |-----------------------------------------|-----------------------------------------|
G |-----------------------------------------|-----------------------------------------|
D |--4--4--2------4---4--2------2--4--4--2--|--4--4--2------4---4--2------2--6--6--2--|
A |--4--4--2------4---4--2------2--4--4--2--|--4--4--2------4---4--2------2--6--6--2--|
D |--4--4--2------4---4--2------2--4--4--2--|--4--4--2------4---4--2------2--6--6--2--|

e |-----------------------------------------|-----------------------------------------|
B |-----------------------------------------|-----------------------------------------|
G |-----------------------------------------|-----------------------------------------|
D |--4--4--2------4---4--2------2--4--4--2--|--4--4--2------4---4--2------2--6--6--2--|
A |--4--4--2------4---4--2------2--4--4--2--|--4--4--2------4---4--2------2--6--6--2--|
D |--4--4--2------4---4--2------2--4--4--2--|--4--4--2------4---4--2------2--6--6--2--|

e |-----------------------------------------|-----------------------------------------|
B |-----------------------------------------|-----------------------------------------|
G |-----------------------------------------|-----------------------------------------|
D |--4--4--2------4---4--2------2--4--4--2--|--4--4--2------4---4--2------2--6--6--2--|
A |--4--4--2------4---4--2------2--4--4--2--|--4--4--2------4---4--2------2--6--6--2--|
D |--4--4--2------4---4--2------2--4--4--2--|--4--4--2------4---4--2------2--6--6--2--|

e |-----------------------------------------|---------------------------|
B |-----------------------------------------|---------------------------|
G |-----------------------------------------|---------------------------|
D |--4--4--2------4---4--2------2--4--4--2--|--4--4--2------6-----2--4--|
A |--4--4--2------4---4--2------2--4--4--2--|--4--4--2------6-----2--4--|
D |--4--4--2------4---4--2------2--4--4--2--|--4--4--2------6-----2--4--|

e |--------------------------------------------------------------------------------------|
B |--------------------------------------------------------------------------------------|
G |--------------------------------------------------------------------------------------|
D |--9--9--7------9----7--9--9--7------9----7--9--9--7------9----7--9----7----11----7----|
A |--9--9--7------9----7--9--9--7------9----7--9--9--7------9----7--9----7----11----7----|
D |--9--9--7------9----7--9--9--7------9----7--9--9--7------9----7--9----7----11----7----|

e |-------------------------------------------------------------------------------------|
B |-------------------------------------------------------------------------------------|
G |-------------------------------------------------------------------------------------|
D |--9--9--7------9----7--9--9--7------9----7--9--9--7------9----7--9----7----9----7----|
A |--9--9--7------9----7--9--9--7------9----7--9--9--7------9----7--9----7----9----7----|
D |--9--9--7------9----7--9--9--7------9----7--9--9--7------9----7--9----7----9----7----|

e |-----------------------------------------|-----------------------------------------|
B |-----------------------------------------|-----------------------------------------|
G |-----------------------------------------|-----------------------------------------|
D |--4--4--2------4---4--2------2--4--4--2--|--4--4--2------4---4--2------2--6--6--2--|
A |--4--4--2------4---4--2------2--4--4--2--|--4--4--2------4---4--2------2--6--6--2--|
D |--4--4--2------4---4--2------2--4--4--2--|--4--4--2------4---4--2------2--6--6--2--|

e |-----------------------------------------|---------------------------|
B |-----------------------------------------|---------------------------|
G |-----------------------------------------|---------------------------|
D |--4--4--2------4---4--2------2--4--4--2--|--4--4--2------6-----2--4--|
A |--4--4--2------4---4--2------2--4--4--2--|--4--4--2------6-----2--4--|
D |--4--4--2------4---4--2------2--4--4--2--|--4--4--2------6-----2--4--|

e |----------------------------------------------------|------------------------------------------|
B |----------------------------------------------------|------------------------------------------|
G |----------------------------------------------------|------------------------------------------|
D |--14--14--12------14----14--12------12--16--16--12--|--6--6--4------6----6--4------6--8--8--6--|
A |--14--14--12------14----14--12------12--16--16--12--|--6--6--4------6----6--4------6--8--8--6--|
D |--14--14--12------14----14--12------12--16--16--12--|--6--6--4------6----6--4------6--8--8--6--|

e |----------------------------------------------------|--------------------------|
B |----------------------------------------------------|--------------------------|
G |----------------------------------------------------|--------------------------|
D |--14--14--12------14----14--12------12--16--16--12--|--6--6--4------6----4--8--|
A |--14--14--12------14----14--12------12--16--16--12--|--6--6--4------6----4--8--|
D |--14--14--12------14----14--12------12--16--16--12--|--6--6--4------6----4--8--|

e |----------------------------------------------------|------------------------------------------|
B |----------------------------------------------------|------------------------------------------|
G |----------------------------------------------------|------------------------------------------|
D |--14--14--12------14----14--12------12--16--16--12--|--6--6--4------6----6--4------6--8--8--6--|
A |--14--14--12------14----14--12------12--16--16--12--|--6--6--4------6----6--4------6--8--8--6--|
D |--14--14--12------14----14--12------12--16--16--12--|--6--6--4------6----6--4------6--8--8--6--|

e |----------------------------------------------------|--------------------------|
B |----------------------------------------------------|--------------------------|
G |----------------------------------------------------|--------------------------|
D |--14--14--12------14----14--12------12--16--16--12--|--6--6--4------6----4--8--|
A |--14--14--12------14----14--12------12--16--16--12--|--6--6--4------6----4--8--|
D |--14--14--12------14----14--12------12--16--16--12--|--6--6--4------6----4--8--|

VGJam Tabs Doom - "Episode 1, map 4"
Tabs database last modified Tuesday, 01-Nov-2016 19:14:53 UTC.
Copyright © 1999 - 2016 VideoGameJam.com. All rights reserved.