VGJam Tabs Doom II
Doom II
"The Gauntlet" - Guitar tab
Platform(s):Personal Computer / Macintosh
Composed by:Bobby Prince
Tabbed by:Amp
Last modified:2002-11-10
Print it:Original file (.TXT)
Hear it:MIDI file
Doom 2 - Map 03 
"The Gauntlet"
Tab by: Amp (supernaut@popmail.com)


Play VERY VERY staccato (dont let the notes carry)

Riff 1
e |--------------------------------------------------|
B |--------------------------------------------------|
G |--------------------------------------------------|
D |--5--5--6--6--5--5--6--6--5--6--7--8--9--8--7--6--|
A |--------------------------------------------------|
E |--------------------------------------------------|


Riff 2
e |--------------------------------------------------|
B |--------------------------------------------------|
G |--5--5--6--6--5--5--6--6--5--6--7--8--9--8--7--6--|
D |--------------------------------------------------|
A |--------------------------------------------------|
E |--------------------------------------------------|


Riff 3
e |--------------------------------------------------|
B |--------------------------------------------------|
G |--------------------------------------------------|
D |--3--3--4--4--3--3--4--4--5--5--6--6--5--5--6--6--|
A |--------------------------------------------------|
E |--------------------------------------------------|


Riff 4
e |--------------------------------------------------|
B |--------------------------------------------------|
G |--7--7--8--8--7--7--8--8--7--6--5--4--3--2--1--0--|
D |--------------------------------------------------|
A |--------------------------------------------------|
E |--------------------------------------------------|


Here's how the song goes..

Riff 1 (4x)
Riff 2 (2x)
Riff 1 (2x)
Riff 3 (3x)
Riff 4 (1x)
Start over from beginning.

VGJam Tabs Doom II - "The Gauntlet"
Tabs database last modified Tuesday, 01-Nov-2016 19:14:53 UTC.
Copyright © 1999 - 2016 VideoGameJam.com. All rights reserved.