VGJam Tabs Doom II
Doom II
"Maps 01, 09, 10, 18" - Guitar tab
Platform(s):Personal Computer / Macintosh
Composed by:Bobby Prince
Tabbed by:jk.huovinen
Last modified:1999-12-22
Print it:Original file (.TXT)
Map 01
g|--------------------------------------------------------------------|
D|--------------------------------------------------------------------|
A|--------------------------------------------------------------------|
E|-00-00-00-00-0-6-00-00-00-00-0-7-00-00-00-00-0-8-00-00-00-00-0-9--6-|

  Second time
g|--------------------------------------------------------------------|
D|--------------------------------------------------------------------|
A|--------------------------------------------------------------------|
E|-00-00-00-00-0-6-00-00-00-00-0-7-00-00-00-00-0-8-00-00-00-00-0-9876-|

The organ sound
e|----------------------|---------------------|-----------------------|
b|-0----1---2---3---1-0-|-5---6---7---8---6-5-|-----------------------|
g|-0----0---0---0---0-0-|-5---5---5---5---5-5-|-7---7---7---5--5-5-5-7|
D|-2----2---2---2---2-2-|-7---7---7---7---7-7-|-5---4---3---2--2-2-3-4|
A|------------------>->-|----------------->->-|-----------------------|
E|----------------------|---------------------|-----------------------|

I got the first sixteen bars tabbed out. I got tired
I'll finish it when my doctor says that my heart can handle it.
Ok. Each section is a bar. A row is 2 bars. So there
  1                                  2
e|---------------------------------|----------------------------------|
b|---------------------------------|----------------------------------|
g|-4-------4-5-4-------------------|-------------5-----------5-4------|
D|---5-2-5-------5-2-------2-5-4-2-|-----5-7-5-----5-----5-------7-5--|
A|-------------------2---2---------|---7-------7-----7-----7----------|
E|---------------------3-----------|-8-----------------8--------------|
  3                                  4
e|---------------------------------|----------------------------------|
b|---------------------------------|-----------------3-2--------------|
g|---------------4---------4-----4-|---------------------4------------|
D|-----------2-5---2-5-4-2---5-2---|-2-------2---5-2-------5----------|
A|-2-------2-----------------------|-------2---2-------------3---2----|
E|---3-0-3-------------------------|---3-5----------------------------|

  It goes too low. So from now on everything is an octave higher than they should.
From here is row is a bar
  5
e|---------------------------------|
b|---------------------------------|
g|---------------------------------|
D|---9-7----------9-109-7-9--------|
A|-10---107---7-10----------107----|
E|----------7-------------------7--|

  6
e|-------------------------------------------------|
b|-------------------------------------------------|
g|-------------14-------------------------16-14----|
D|-14-17-16-14----17-16-14----------14-17-------17-|
A|-------------------------14----14----------------|
E|----------------------------15-------------------|
  7
e|---------------------------------------|
b|----------------------------12---------|
g|-9---------------------9-12----12-9-12-|
D|---9-----------------9-----------------|
A|-----10-7\2---2/7-10-------------------|
E|------------3--------------------------|
  8
e|--------------------------------------|
b|--------------------------------------|
g|--------------------------------------|
D|-9-----------------9----9-12-10---9---|
A|---10-7-10-2---2/7---10---------------|
E|-------------3------------------------|

 9
e|---------------------------12-10---------------|
b|------------10-13-12-10-13-------13-10---10-13-|
g|----------9----------------------------9-------|
D|-10----10--------------------------------------|
A|----12-----------------------------------------|
E|-----------------------------------------------|

  10
e|-----------------------------------------------|
b|----------------10-----------------------10----|
g|-10----------10----12-10--------------------10-|
D|----10----10-------------10---------10---------|
A|-------12-------------------12-8-12----12------|
E|-----------------------------------------------|

  11
e|--------------------------------------------|
b|-10-13-12-10-----------10-------------------|
g|-------------9-------9----9----9------------|
D|------------------10--------10---10---------|
A|---------------12-------------------12-7-12-|
E|--------------------------------------------|

  12
e|------------------------------------------|
b|---10-------------------------------------|
g|-9----12-10-9-------------9---------------|
D|--------------12-10----10---10------------|
A|--------------------12---------12-8---7---|
E|------------------------------------------|
  13
e|---------------------------------|
b|-------------------------------6-|
g|---9---7-9-7-9-7-9-7---7-9-7-9---|
D|---------------------10----------|
A|-*---*---------------------------|
E|---------------------------------|
*means sixteenth note break

  14
e|-------------------------------------------|
b|--------------------10---10-12-13-12-10----|
g|-9-7----9---------9----9----------------12-|
D|-----10---10-7-10--------------------------|
A|-------------------------------------------|
E|-------------------------------------------|

  15
e|--------------------------------------------|
b|---------------------------10-13-10---------|
g|-9-------9----9----------9----------9-------|
D|---12-10---12---10----10--------------10----|
A|-------------------12--------------------12-|
E|--------------------------------------------|

  16
e|---------------12-10-----------------------|
b|---10-13-12-13-------13-10-----------------|
g|-9-------------------------9----9----------|
D|-----------------------------10------------|
A|-----------------------------------8---7---|
E|-------------------------------------------|


v
map 09 The Pit
Everything is in here. Find out for yerselves how it goes.

e|-------------------------------------|
b|-------------------------------------|
g|-------------------------------------|
D|-----------10-10---9-9---7-7-5-7-5-4-|
A|-7-10-10-7-------7-----7-------------|
E|-------------------------------------|
 |
g|-------------------------------------|
D|-------------------------------------|
A|-7-7-7-7-7-7-7-7-7-7-7-7-7-7-7-7-7-5-|
E|-------------------------------------|
 | third time 
e|-------------------------------------|
b|-------------------------------------|
g|-------------------------------------|
D|----2--------------------------------|
A|----2--------------------------------|
E|-0000--------------------------------|
hit the sixteenth notes on the last beat of measure before the chord

e|---------------------------------|
b|---------------------------------|
g|---------------------------------|
D|---------6-6---5-5---3-3-1-3-1---|
A|-3-6-6-3-----3-----3-----------5-|
E|---------------------------------|
 |
g|---------------------------------|
D|---------------------------------|
A|-3-3-3-3-3-3-3-3-3-3-3-3-3-3-3-1-|
E|---------------------------------|
 | third time 
e|-------------------------------------|
b|-------------------------------------|
g|-------------------------------------|
D|----5--------------------------------|
A|-3333--------------------------------|
E|---(3)-------------------------------|
hit the sixteenth notes on the last beat of measure before the chord


e|-------------------------------------------------------------|
b|-------------------------------------------------------------|
g|-------------------------------------------------------------|
D|---3-3-------------3-3-----------3-3-------------------------|
A|-5-----4---------5-----4-------5-----4---------------7-7-7-7-|
E|-------------------------------------------------------------|
 |
e|-------------------------------------------------------------|
b|-------------------------------------------------------------|
g|-------------------------------------------------------------|
D|-------------------------------------------------------------|
A|-8-----7---------8-----7-------8-----7---------------7-7-7-7-|
E|-6-----5---------6-----5-------6-----5---------------5-5-5-5-|

The quiet part
for a mellow and dark sound use middle or neck pickup
  Riff S
e|-------------------------------------------------|
b|-------------------------------------------------|
g|-------------16-16----17-17----16-16-------------|
D|-14-17-17-14-------14-------14-------17-19-17-16-|
A|-------------------------------------------------|
E|-------------------------------------------------|
 |
g|-------------------------------------------------|
D|-------------------------------------------------|
A|-7--7--7--7--7--7--7--7--7--7--7--7--7--7--7--5--|
E|-------------------------------------------------|
  
 Riff S continues
e|-------------------------------------------------|
b|-------------------------------------------------|
g|-------------16-16----17-17----15-15-------------|
D|-14-17-17-14-------14-------14-------17-19-17-16-|
A|-------------------------------------------------|
E|-------------------------------------------------|
 |
g|-------------------------------------------------|
D|-------------------------------------------------|
A|-7--7--7--7--7--7--7--7--7--7--7--7--7--7--7--5--|
E|-------------------------------------------------|

  Sello sound first ON RIFF S
g|-------------------------------------------------|
D|-------------------------------------------------|
A|-------------------------------------------------|
E|-7-8-7-8-7-8-7-8-7-8-7-8-7-8-7-8-7-8-7-8-7-8-7-8-|
  
  Sello sound second ON RIFF S
g|-------------------------------------------------|
D|-------------------------------------------------|
A|-------------------------------------------------|
E|-7--7--7--7--7--7--7--7--7--7--7--7--7--7--7--5--|

  

e|-------------------------------------------------|
b|-------------------------------------------------|
g|-------------15-15----17-17----15-15-------------|
D|-14-17-17-14-------14-------14-------17-19-17-16-|
A|-------------------------------------------------|
E|-------------------------------------------------|
 |
g|-------------------------------------------------|
D|-5--5--5--5--5--5--5--5--5--5--5--5--5--5--5--4--|
A|-------------------------------------------------|
E|-------------------------------------------------|

Map 10
e|------------------------------|-------------------------------------|
b|------------------------------|-------------------------------------|
g|------------------------------|-------------------------------------|
D|---4-3---5--4---4-3---2-------|-------------------------------------|
A|-2-----2------2-----2---5-4---|---5-4---6---5---5-4---3-------------|
E|----------------------------5-|-3-----3-------3-----3---6-5-1-------|

e|------------------------------|-------------------------------------|
b|------------------------------|-------------------------------------|
g|------------------------------|-------------------------------------|
D|-4-------------------------2--|----------------------------*--------|
A|-2-------------------------0--|-5--------------------------7--------|
E|------------------------------|-3--------------------------5--------|
*play that on the last time


that "rock" ending
e|-----------------------------|
b|-----------------------------|
g|-----------------------------|
D|-----------------------------|
A|---5-4---6---5---2-1---3---2-|
E|-3-----3-------0-----0-------|
 |
e|-----------------------------|
b|-----------------------------|
g|-----------------------------|
D|-5-------------2-------------|
A|-5-------------2-------------|
E|-3-------------0-------------|


B minor chord somewhere in there
e|-----------------------------|
b|-----------------------------|
g|-----------------------------|
D|-4---------------------------|
A|-5---------------------------|
E|-7---------------------------|

map 18
This is my interpertation of this song. 
It's not a note to note version. It's more finger friendly Originally it goes in goes in F but I changed it to E

Bass
g|-------------|----------|-----------|-------------------------------|
D|-------------|----------|-7---8---5-|-------------------------------|
A|-7---5---2-5-|-7---8--5-|-----------|-------------------------------|
E|-------------|----------|-----------|-------------------------------|

Guitar
e|-----------------|---------------|------------------|---------------|
b|-----------------|---------9-----|-----8-----8-10-8-|-----------6-8-|
g|-----7-----7-----|-------7-------|---9-----9--------|-----6-7-9-----|
D|---9-----9---9---|-----9---------|-7-----8----------|-7-8-----------|
A|-7-----8-------8-|-7-8-----------|------------------|---------------|
E|-----------------|---------------|------------------|---------------|

e|------------------------|-(last-time)-----------|
b|------10-------10-12-10-|------10------10-12-10-|
g|---11-------11----------|---11------11----------|
D|-9-------10-------------|-9-------9-------------|
A|------------------------|-----------------------|
E|------------------------|-----------------------|

e|------------------|---------------------|
b|-----8-----8-10-8-|-11-8----------------|
g|---9-----9--------|------9--------------|
D|-7-----8----------|--------11-10-8------|
A|------------------|----------------11-9-|
E|------------------|---------------------|

e|-----------------|---------7-----|
b|-----------------|-------9-------|
g|-----7-----7-----|-----7---------|
D|---9-----9---9---|---------------|
A|-7-----8-------8-|-7-8-----------|
E|-----------------|---------------|

Pizzicato Listen to it and figure out how it goes!!!!        |last time
e|-----------------------------|-----------------------------|--------|
b|-----------------------------|-----------------------------|--------|
g|-----------------------------|-----------------------5-----|--------|
D|-----------------------------|-8-7-5---7-8-7-8-7-5-----8-7-|-7-8-7-5|
A|-7-5------5-7-5-7-5----8-7-5-|-----------------------------|--------|
E|-----7--------------7--------|-----------------------------|--------|

e|-------------------|-10------------(I recommend-two-guitars)--------|
b|-------------------|----10------------------------------------------|
g|-8---------8-------|--7----11-8-------------------------------------|
D|---10-9------10-9--|----7-------9--7-5--3---------------------------|
A|-------------------|-------9--6-------------------------------------|
E|-------------------|------------7--5-3--1---------------------------|

Strings
e|------|------|----------------------------------------------|
b|------|------|----------------------------------------------|
g|------|-6--7-|-8--9--8--9--8--9--8--6--7---6--7--6--7---8---|
D|6--7--|------|----------------------------------------------|
A|------|------|----------------------------------------------|
E|------|------|----------------------------------------------|

e|--------------------------------------------------------------------|
b|--------------------------------------------------------------------|
g|--------------------------------------------------------------------|
D|--------------------------------------------------------------------|
A|--------------------------------------------------------------------|
E|--------------------------------------------------------------------|


That's it! If you need some help with these ( I wrote them kind of quikly, so I cheated a bit) just send me some e-mail. 
jk.huovinen@pp.phnet.fi

VGJam Tabs Doom II - "Maps 01, 09, 10, 18"
Tabs database last modified Tuesday, 01-Nov-2016 19:14:53 UTC.
Copyright © 1999 - 2016 VideoGameJam.com. All rights reserved.