VGJam Tabs Duke Nukem 3D
Duke Nukem 3D
"Theme (by Megadeth)" - Guitar tab
Platform(s):Personal Computer / Macintosh
Tabbed by:Gregg Firestone
Last modified:2000-11-25
Print it:Original file (.TXT)
Duke Nukem Theme Song
as performed by Megadeth
tab by Gregg Firestone (astralpuppy@hotmail.com)

----Legend----

~ = a bend
\ = a down slide


  Play 2x
E------------------------------------------
B------------------------------------------
G------------------------------------------
D---2-2--2---2-2--2-----2-2--2---3-3--3----
A---2-2--2---2-2--2-----2-2--2---3-3--3----
E---0-0--0---0-0--0-----0-0--0---1-1--1----


E---------------------------------------------------------------
B---------------------------------------------------------------
G---------------------------------------------------------------
D---2--5--7-------7--9-------9--10-------------------5--5--5----
A---2--5--7-------7--9-------9--10------2~-0---------5--5--5----
E---0--3--5--0-0--5--7--0-0--7--8--0-0--------3--0---3--3--3----


  Play 2X
E----------------------
B----------------------
G----------------------
D---3-3--3---3-3--3----
A---3-3--3---3-3--3----
E---1-1--1---1-1--1----


  Rhythm Guitar starts with this...
E---------------------------------------------
B---------------------------------------------
G---------------------------------------------
D-------2-----2-----2-----2-------------------
A-------2-----2-----2-----2-------------------
E--0-0--0--0--0--0--0--0--0--0--0-0-0---------


  While Lead Guitar comes in
E-----------------------------------------------
B-----------------------------------------------
G-----------------------------------------------
D--9-9-9--9-10--10--7-7-7--7-7-5-4-5---9-9------
A-----------------------------------------------
E-----------------------------------------------


E-----------------------------------------------
B-----------------------------------------------
G-----------------------------------------------
D--9--10--9--7--5--5--2--5--7--4----------------
A-----------------------------------------------
E-----------------------------------------------


E-----------------------------------------------
B--12-12-12--12-13-13--10-10-10--10-10--8--7--8-
G-----------------------------------------------
D-----------------------------------------------
A-----------------------------------------------
E-----------------------------------------------


E-----------------------------------------------
B--12-12-12--12-13-12-10--8--8-5-8-10\-7--------
G-----------------------------------------------
D-----------------------------------------------
A-----------------------------------------------
E-----------------------------------------------


When both guitars start to solo, and the whole wah comes in, it totally 
loses me.  If you can figure out the rest of the song, I bow to your talent,
and ask that you e-mail me the tab.  Oh yeah, and don't forget to do the few
Duke quotes throughout the song.  Do Duke some justice.  Thanks.

VGJam Tabs Duke Nukem 3D - "Theme (by Megadeth)"
Tabs database last modified Tuesday, 01-Nov-2016 19:14:53 UTC.
Copyright © 1999 - 2016 VideoGameJam.com. All rights reserved.