VGJam Tabs Duke Nukem 3D
Duke Nukem 3D
"Theme (by Megadeth)" - Guitar tab
Platform(s):Personal Computer / Macintosh
Tabbed by:Teemu Ahola
Last modified:2001-01-25
Print it:Original file (.TXT)
Megadeth
"Duke Nukem Theme"
tabbed by Teemu Ahola
e-mail: teemu.ahola@pp.castellum.fi

h  -  hammer on
p  -  pull off
b  -  bend
r  -  release bend

Verse1	2x
E------------------------------|
B------------------------------|
G------------------------------|
D--2-2-2--2-2-2---2-2-2--3-3-3-|
A--2-2-2--2-2-2---2-2-2--3-3-3-|
E--0-0-0--0-0-0---0-0-0--1-1-1-|

Verse2	4x
E-------------------------------------------------4th time--------|
B-----------------------------------------------------------------|
G----------------------------------------5-5------5-5-5-5-5-5-----|
D------2-----2-4-----4-5-----------------5-5------5-5-5-5-5-5-----|
A------0-----0-2-----2-3-----2h3p2p0-----3-3------3-3-3-3-3-3-----|
E--0-3---0-0-----0-0-----0-0---------3-0--------------------------|

Verse3	2x
E----------------|
B----------------|
G----------------|
D--3-3-3--3-3-3--|
A--3-3-3--3-3-3--|
E--1-1-1--1-1-1--|

Verse4	3x
E------------------------------------------------------------------------|
B------------------------------------------------------------------------|
G------------------------------------------------------------------------|
D------2-----2-----2-----2--------------2-----2-----2--------------------|
A------------------------------------------------------------------------|
E--0-0---0-0---0-0---0-0---0-0-000--0-0---0-0---0-0---0-0-0-000--000-----|

E------------------------------------------------------------------------|
B------------------------------------------------------------------------|
G------------------------------------------------------------------------|
D------2-----2-----2-----2---------------2-----2-------------------------|
A------------------------------------------------------------------------|
E--0-0---0-0---0-0---0-0---0-0-000---0-0---0-0---0-0-000-000-000-000-----|

Endpart of verse4 when played with verse 5
E----------------------------|
B----------------------------|
G------5-----5------4-4-4-4--|
D------5-----5------4-4-4-4--|
A--3-3---3-3---3-3--2-2-2-2--|
E----------------------------|

Verse5	play verse4 with this one
by the way the number of the notes is incorrect in this verse,
cause I always impovise it.play it as you wish.
E----------------------------------------------------------------|
B----------------------------------------------------------------|
G----------------------------------------------------------------|
D--9---10---7---7------------9---9b10--9--7----------------7-----|
A------------------10-9-10--------------------10-10--7--10---9---|
E----------------------------------------------------------------|

E------------------------------------------------------------------------|
B--12---12b13---10--------------12---12b13--12--10-----------------------|
G--------------------12-11-12------------------------12--9--12--14r12-11-|
D------------------------------------------------------------------------|
A------------------------------------------------------------------------|
E------------------------------------------------------------------------|


Verse3
Verse2
Verse3
Verse4&5


SOLO
(If someone knows how the solo goes,
please send it to me)


Verse6	2x
E-------------------------------|
B-------------------------------|
G-------------------------------|
D--3-3-3--3-3-3---3-3-3--2-2-2--|
A--3-3-3--3-3-3---3-3-3--2-2-2--|
E--1-1-1--1-1-1---1-1-1--0-0-0--|

Verse7	4x
E---------------------------|don't-play-this----|
B---------------------------|4th-time-----------|
G---------------------------|-------------------|
D------2-----2-4-----4-5----|-------------------|
A------0-----0-2-----2-3---------2h3p2p0--------|
E--0-3---0-0-----0-0---------0-0----------3-0---|


If you think that something is wrong, that's your problem !
(don't take this too seriously)

VGJam Tabs Duke Nukem 3D - "Theme (by Megadeth)"
Tabs database last modified Tuesday, 01-Nov-2016 19:14:53 UTC.
Copyright © 1999 - 2016 VideoGameJam.com. All rights reserved.