VGJam Tabs The Elder Scrolls II: Daggerfall
The Elder Scrolls II: Daggerfall
"Sunnyday" - Guitar tab
Platform(s):Personal Computer / Macintosh
Tabbed by:Thomas Knight
Last modified:2007-03-23
Print it:Original file (.TXT)
Game: The Elder Scrolls II: Daggerfall
Song: Sunnyday
System: PC
Composer: Eric Heberling
Tabbed by Thomas Knight, binarynova@yahoo.com
http://www.usao.edu/~stuknightt

Finally some tab from one of my favorite PC games of all time. :)
Not 100% sure on the title, but it's the title I found online
and the song does play during 'sunny days' so it works.

The song is in 3/4 time and I've tried to show rhythm. All
notes are either quarter notes or full notes. '5~' means let
that note ring until the next note on that string.

Parts 2a and 2b are exactly like 1a and 1b except moved up the
fretboard two frets.

Order of play:
Part 1a - Part 1b - Part 2a - Part 2b

Hope you enjoy.

Part 1a:
 |   *   *   *   |   *   *   *   |   *   *   *   |   *   *   *   |
e|---------------|---------------|---------------|---------------|
B|---------------|---------------|-------6---4---|---------------|
G|---5~----------|---6~----------|---5~----------|---6~----------|
D|---------------|---------------|---------------|---------------|
A|---------------|---------------|---------------|---------------|
E|---------------|---------------|---------------|---------------|


 |   *   *   *   |   *   *   *   |   *   *   *   |   *   *   *   |
e|---------------|-------6---8---|---9~------6---|---------------|
B|-------6---8---|---9~----------|-------6-------|---8~----------|
G|---5~----------|---6~----------|---6~----------|---9~----------|
D|---------------|---------------|---------------|---------------|
A|---------------|---------------|---------------|---------------|
E|---------------|---------------|---------------|---------------|


Part 1b:
 |   *   *   *   |   *   *   *   |   *   *   *   |   *   *   *   |
e|---------------|---------------|---------------|---------------|
B|---------------|---------------|-------6---4---|---------------|
G|---5~----------|---6~----------|---5~----------|---6~----------|
D|---------------|---------------|---------------|---------------|
A|---------------|---------------|---------------|---------------|
E|---------------|---------------|---------------|---------------|


 |   *   *   *   |   *   *   *   |   *   *   *   |   *    *    *   |
e|---------------|-------6---8---|---9~------6---|---10~-----------|
B|-------6---8---|---9~----------|-------6-------|-----------------|
G|---5~----------|---6~----------|---6~----------|---7~------------|
D|---------------|---------------|---------------|-----------------|
A|---------------|---------------|---------------|-----------------|
E|---------------|---------------|---------------|-----------------|

VGJam Tabs The Elder Scrolls II: Daggerfall - "Sunnyday"
Tabs database last modified Tuesday, 01-Nov-2016 19:14:53 UTC.
Copyright © 1999 - 2016 VideoGameJam.com. All rights reserved.