VGJam Tabs King's Quest V: Absence Makes the Heart Go Yonder
King's Quest V: Absence Makes the Heart Go Yonder
"Bandit Camp" - Guitar tab
Platform(s):Personal Computer / Macintosh
Composed by:Mark Seibert, Ken Allen
Tabbed by:Deezer
Last modified:2006-10-28
Print it:Original file (.TXT)
Hear it:MIDI file
#----------------------------------PLEASE NOTE---------------------------------#
#This file is the author's own work and represents their interpretation of the #
#song. You may only use this file for private study, scholarship, or research. #
#------------------------------------------------------------------------------#

King's Quest V (PC)
"Bandit Camp"

Originally composed by: Mark Seibert, Ken Allen
------------------------------------------------------------------------------
Tabbed by: Deezer (deezer AT videogamejam DOT com)
For http://www.videogamejam.com
------------------------------------------------------------------------------

\ = slide down

Standard tuning: (low to high) EADGBe


------------------14--|---\12--11--12----------11------11--12-|
----------------------|--------------------13-----------------|
----------------------|---------------------------------------|
----------------------|---------------------------------------|
----------------------|---------------------------------------|
----------------------|---------------------------------------|

-14--14\12------11------14----\12--11-|-12----------11-----------|
--------------------------------------|---------13---------------|
--------------------------------------|--------------------------|
--------------------------------------|--------------------------|
--------------------------------------|--------------------------|
--------------------------------------|--------------------------|

---------14-----\12--11--12----------11-|
---------------------------------13-----|
----------------------------------------|
----------------------------------------|
----------------------------------------|
----------------------------------------|

-----11--12--14--14\12------11------14---|
-----------------------------------------|
-----------------------------------------|
-----------------------------------------|
-----------------------------------------|
-----------------------------------------|

--\12--11--12------------------|------------14------17-------|
-------------------13--12------|-----------------------------|
-------------------------------|-----------------------------|
-------------------------------|-----------------------------|
-------------------------------|-----------------------------|
-------------------------------|-----------------------------|

---------------------17--17--15-|-14--12--14h15p14--------------|
--------------------------------|-------------------------------|
--------------------------------|-------------------------------|
--------------------------------|-------------------------------|
--------------------------------|-------------------------------|
--------------------------------|-------------------------------|

--------------------14--17-|-17--------------------|
---------------------------|-----------------------|
---------------------------|-----------------------|
---------------------------|-----------------------|
---------------------------|-----------------------|
---------------------------|-----------------------|

-----17--17--15--14--12-14h15p14p12-14h15p14p12-14p|
---------------------------------------------------|
---------------------------------------------------|
---------------------------------------------------|
---------------------------------------------------|

15h14p12-14h15p14p12-14-----------|-------14--17--17-----------|
----------------------------------|----------------------------|
----------------------------------|----------------------------|
----------------------------------|----------------------------|
----------------------------------|----------------------------|
----------------------------------|----------------------------|

------17--17--17--17--17--15--14--12--14-|-------------------|
-----------------------------------------|-------------------|
-----------------------------------------|-------------------|
-----------------------------------------|-------------------|
-----------------------------------------|-------------------|
-----------------------------------------|-------------------|

Repeat from beginning.


Last modified: 10/28/2006

VGJam Tabs King's Quest V: Absence Makes the Heart Go Yonder - "Bandit Camp"
Tabs database last modified Tuesday, 01-Nov-2016 19:14:53 UTC.
Copyright © 1999 - 2016 VideoGameJam.com. All rights reserved.