VGJam Tabs Monkey Island
Monkey Island
"Theme" - Guitar tab
Platform(s):Personal Computer / Macintosh
Tabbed by:Fi
Last modified:2001-12-05
Print it:Original file (.TXT)
PC - Monkey Island theme

E-----------------------------------------
B--5-5-8-7-5-3-5--3-3-1-0-3-1-1-0---
G-----------------------------------------
D-----------------------------------------
A-----------------------------------------
E-----------------------------------------

E----------------------------5-----------
B--5-5-8-7-5-3-5-7-8-7-8--7-s8-s7-5-3-s8-8-7-
G-----------------------------------------
D-----------------------------------------
A-----------------------------------------
E-----------------------------------------

E-----------------------------------------
B--5-8-7-5-3-5-5-5-5-3-1-0-3-1-1-0--
G-----------------------------------------
D-----------------------------------------
A-----------------------------------------
E-----------------------------------------

Its not perfect, and its only the intro part - but hey, its better than 

nothing, I guess.

Fi
grrl_with_a_guitar@hotmail.com
http://rockergrrlfi.freeservers.com

VGJam Tabs Monkey Island - "Theme"
Tabs database last modified Tuesday, 01-Nov-2016 19:14:53 UTC.
Copyright © 1999 - 2016 VideoGameJam.com. All rights reserved.