VGJam Tabs Out of This World
Out of This World
"Intro" - Guitar tab
Platform(s):Personal Computer / Macintosh
Tabbed by:Jon Blake
Last modified:2002-06-15
Print it:Original file (.TXT)
---------------------------------------------------------------
Another World/Out of this world THEME // Amiga/PC
---------------------------------------------------------------
Tabbed by; Jon Blake // Squink@zcluster.org
This is from the Intro cutscene (the bit with the car, and the keypad and 
stuff)
You'll probably want to listen to the game again to get the timing right.. 
it's a bit odd..


x* - fadeout x times
~ - hold


G-------------------------------------------------
D-9-5-7~----5-------------------------------------
A-------------5-9-7~~-----------------------------
E-------------------------------------------------

G------------------------------------------------- 
D-9-5-7-----5-----------9-5-7-----5---------------
A-------------5-7-------------------5-7--10-12----
E-------------------------------------------------

G------------------------------------------------- 
D-9-5-7-----5-----------9-5-7-----5---------------
A-------------5-7-------------------5-7-9-10-12-14
E-------------------------------------------------

G-------------------------------------------------
D-1412--------------------------------------------
A------12-1414--14-12-10-9-7x8-9x8-10x8-12x8-14x20*
E-------------------------------------------------

E--------------------------------------------12x16
B-------------------------------------------------
G-------------------------------------------------
D-------------------------------------------------
A-------------------------------------------------
E-------------------------------------------------

VGJam Tabs Out of This World - "Intro"
Tabs database last modified Tuesday, 01-Nov-2016 19:14:53 UTC.
Copyright © 1999 - 2016 VideoGameJam.com. All rights reserved.