VGJam Tabs Wave Race: Blue Storm
Wave Race: Blue Storm
"Rob Haywood's theme" - Guitar tab
Platform(s):GameCube
Tabbed by:Deezer
Last modified:2002-03-21
Print it:Original file (.TXT)
#----------------------------------PLEASE NOTE---------------------------------#
#This file is the author's own work and represents their interpretation of the #
#song. You may only use this file for private study, scholarship, or research. #
#------------------------------------------------------------------------------#


Wave Race: Blue Storm (Nintendo GameCube)
"Rob Haywood's theme"

Originally composed by: ?
------------------------------------------------------------------------------
Tabbed by: Deezer (deezer@kontek.net)
For http://www.kontek.net/vgjam/
------------------------------------------------------------------------------

Symbols used:
 x = muted string
 \ = slide down
 / = slide up

Standard tuning: (low to high) EADGBe


  G5                              F5                        Bb5
|-----------------------------------------------------------------
|-----------------------------------------------------------------
|-----------------------------------------------------------3-----
|-5-5-5-5-5-----------------------3-3-3-3-3-----------------3-----
|-5-5-5-5-5-----------------------3-3-3-3-3-----------------1-----
|-3-3-3-3-3-----------------------1-1-1-1-1-----------------------

  G5                              F5                Bb5
 -----------------------------------------------------------------|
 -----------------------------------------------------------------|
 ---------------------------------------------------3-------3-----|
 -5-5-5-5-5-----------------------3-3-3-3-3---------3-------3-----|
 -5-5-5-5-5-----------------------3-3-3-3-3-------x-1-----x-1-----|
 -3-3-3-3-3-----------------------1-1-1-1-1-----------------------| x3

  G5
|-----------------------------------------------------------------|
|-----------------------------------------------------------------|
|-----------------------------------------------------------------|
|-5-5-5-5-5-------------------------------------------------------|
|-5-5-5-5-5-------------------------------------------------------|
|-3-3-3-3-3-------------------------------------------------------| x2

  G5                              F5                        Bb5
|-----------------------------------------------------------------
|-----------------------------------------------------------------
|-----------------------------------------------------------3-----
|-5-5-5-5-5-----------------------3-3-3-3-3-----------------3-----
|-5-5-5-5-5-----------------------3-3-3-3-3-----------------1-----
|-3-3-3-3-3-----------------------1-1-1-1-1-----------------------

  G5                              F5                Bb5
 -----------------------------------------------------------------|
 -----------------------------------------------------------------|
 ---------------------------------------------------3-------3-----|
 -5-5-5-5-5-----------------------3-3-3-3-3---------3-------3-----|
 -5-5-5-5-5-----------------------3-3-3-3-3-------x-1-----x-1-----|
 -3-3-3-3-3-----------------------1-1-1-1-1-----------------------|x3

|-----------------------------------------------------------------
|-----------------------------------------------------------------
|-----------------------------------------------------------------
|-10------10\-7-------7-\-5---5-------5---5-/-8-------8---8---0---
|-8-------8-\-5-------5-\-3---3-------3---3-/-6-------6---6-------
|-----------------------------------------------------------------

 -----------------------------------------------------------------|
 -----------------------------------------------------------------|
 -----------------------------------------------------------------|
 -10------10\-7-------7-\-5---5-------5---5-/-8-------8---8---x-x-|
 -8-------8-\-5-------5-\-3---3-------3---3-/-6-------6---6---x-x-|
 -----------------------------------------------------------------| x2

Back to beginning.


Last modified: 03/21/2002


VGJam Tabs Wave Race: Blue Storm - "Rob Haywood's theme"
Tabs database last modified Thursday, 17-Apr-2014 20:21:29 CDT.
Copyright © 1999 - 2014 VideoGameJam.com. All rights reserved.