VGJam Tabs Pitfall: The Mayan Adventure
Pitfall: The Mayan Adventure
"Mines" - Guitar tab
Platform(s):Personal Computer / Macintosh
Composed by:Media Labs
Tabbed by:Vincent Bouchard
Last modified:2005-07-14
Print it:Original file (.TXT)
Hear it:MIDI file
                              PITFALL - MINES THEME
                            As recorded by Media Labs

Music by Media Labs
Transcribed by Vincent Bouchard

Gtr I (E A D G B E) - 'Guitar'

   Intro
    Q=110
    N.C.
   3/4       7/8         3/4       7/8
    Gtr I
    H.        H.      E   H.        H.      E  3x
||----------|-----------|---------|------------||
||o---------|-----------|---------|-----------o||
||----------|-----------|---------|------------||
||----------|-----------|---------|------------||
||o---------|-----------|---------|-----------o||
||----------|-----------|---------|------------||


   Verse 1
    $
   3/4                 7/8
    E  S  E  e  E.  E    E  S  E  e  E  S  E  E
||--------------------|-------------------------|
||o---------10-12--13-|-12-10----------10-------|
||--9-11-12-----------|-------12-11-12----12-11-|
||--------------------|-------------------------|
||o-------------------|-------------------------|
||--------------------|-------------------------|


  1.
3/4                    7/8
   E  S  E  E  E  S  E    +Q    +Q    Q.
|----------------------|--------------------||
|-12-10----------10----|-------------------o||
|-------12-11-12----11-|-(11)--(11)\--------||
|----------------------|--------------------||
|----------------------|-------------------o||
|----------------------|--------------------||


  2.
3/4                   7/8
   E  S  E  E  E  S E   +Q   +Q    Q.
|---------------------|-----------------|
|-12-10---------------|-----------------|
|-------12-11-11-12-9-|-(9)--(9)\-------|
|---------------------|-----------------|
|---------------------|-----------------|
|---------------------|-----------------|


Chorus 1
3/4                  7/8
   E  S  E  e  E.  E    E  S  E  e  E.  E  E
|--------------------|-----------------------|
|-10-12-13-12-13--12-|-10-12-13-12-13--12-10-|
|--------------------|-----------------------|
|--------------------|-----------------------|
|--------------------|-----------------------|
|--------------------|-----------------------|


                            D.S.
3/4                  7/8
   S  E  e  E  S  Q     +Q.   H
|-------------10-----|-------------|
|-12-13-12-13----12--|-(12)--------|
|--------------------|-------------|
|--------------------|-------------|
|--------------------|-------------|
|--------------------|-------------|


3/4                 7/8                   3/4                 7/8
  E  S  E  e  E.  E   E  S  E  e  E.  E E    S  E  e  E.  E E    S E +H     
E.
|-------------------|---------------------|-------------------|----------------|
|-------------------|---------------------|-------------------|----------------|
|-9-11-12-11-12--11-|-9-11-12-11-12--11-9-|-11-12-11-12--11-9-|----9-(9)-------|
|-------------------|---------------------|-------------------|-12-------------|
|-------------------|---------------------|-------------------|----------------|
|-------------------|---------------------|-------------------|----------------|


   Bridge 1
   3/4       7/8         3/4       7/8
    H.        H.      E   H.        H.      E  4x
||----------|-----------|---------|------------||
||o---------|-----------|---------|-----------o||
||----------|-----------|---------|------------||
||----------|-----------|---------|------------||
||o---------|-----------|---------|-----------o||
||----------|-----------|---------|------------||


Guitar Solo 1
3/4                 7/8
   E  S E  e  E.  E    S  S  S  S  S  E  E  S  E  E
|-------------------|-------------------------------|
|---------10-12--13-|-12-13-12-10----------10-------|
|-12-11-9-----------|-------------12-11-12----12-11-|
|-------------------|-------------------------------|
|-------------------|-------------------------------|
|-------------------|-------------------------------|


3/4                    7/8
   E  S  E  e  e  S  E    +H      +Q.
|----------------------|-----------------|
|-12-10----------10----|-----------------|
|-------12-11-12----11-|-(11)----(11)\---|
|----------------------|-----------------|
|----------------------|-----------------|
|----------------------|-----------------|


3/4                7/8
   E  S  E E  E. E    E  S  E  E E.  E  E
|------------------|----------------------|
|-10---------------|-12-10-------------13-|
|----12-11-9-----9-|-------12-11-9--12----|
|------------10----|----------------------|
|------------------|----------------------|
|------------------|----------------------|


3/4                   7/8
   S  E.  E  E  S  E.    +H      +Q.
|--------------10-----|-----------------|
|-12-13--12-13----12--|-(12)----(12)\---|
|---------------------|-----------------|
|---------------------|-----------------|
|---------------------|-----------------|
|---------------------|-----------------|


   Bridge 2
   3/4       7/8         3/4       7/8
    H.        H.      E   H.        H.      E
||----------|-----------|---------|------------||
||o---------|-----------|---------|-----------o||
||----------|-----------|---------|------------||
||----------|-----------|---------|------------||
||o---------|-----------|---------|-----------o||
||----------|-----------|---------|------------||


3/4       7/8             3/4               7/8
             ~~~~~~~~~~~~~~~~~~~~~~~~~~~~~~~~~~~~~~~~~~~~~
  H.         H.       +E     +E   H     +E     +E   Q   H
|---------|-12-------(12)-|-(12)-10----(10)-|-(10)-----------|
|---------|---------------|-----------------|------12--11----|
|---------|---------------|-----------------|----------------|
|---------|---------------|-----------------|----------------|
|---------|---------------|-----------------|----------------|
|---------|---------------|-----------------|----------------|


   3/4       7/8         3/4       7/8
    H.        H.      E   H.        H.      E
||----------|-----------|---------|------------||
||o---------|-----------|---------|-----------o||
||----------|-----------|---------|------------||
||----------|-----------|---------|------------||
||o---------|-----------|---------|-----------o||
||----------|-----------|---------|------------||


Chorus 2
3/4                  7/8
   E  S  E  e  E.  E    E  S  E  e  E.  E  E
|--------------------|-----------------------|
|-10-12-13-12-13--12-|-10-12-13-12-13--12-10-|
|--------------------|-----------------------|
|--------------------|-----------------------|
|--------------------|-----------------------|
|--------------------|-----------------------|


3/4                  7/8
   S  E  e  E  S  Q     +Q.   H
|-------------10-----|-------------|
|-12-13-12-13----12--|-(12)--------|
|--------------------|-------------|
|--------------------|-------------|
|--------------------|-------------|
|--------------------|-------------|


3/4                 7/8                   3/4                 7/8
  E  S  E  e  E.  E   E  S  E  e  E.  E E    S  E  e  E.  E E    S E +H     
E.
|-------------------|---------------------|-------------------|----------------|
|-------------------|---------------------|-------------------|----------------|
|-9-11-12-11-12--11-|-9-11-12-11-12--11-9-|-11-12-11-12--11-9-|----9-(9)-------|
|-------------------|---------------------|-------------------|-12-------------|
|-------------------|---------------------|-------------------|----------------|
|-------------------|---------------------|-------------------|----------------|


   Verse 2
   3/4                 7/8
    E  S  E  e  E.  E    E  S  E  e  E  S  E  E
||--------------------|-------------------------|
||o---------10-12--13-|-12-10----------10-------|
||--9-11-12-----------|-------12-11-12----12-11-|
||--------------------|-------------------------|
||o-------------------|-------------------------|
||--------------------|-------------------------|


  1.
3/4                    7/8
   E  S  E  E  E  S  E    +Q    +Q    Q.
|----------------------|--------------------||
|-12-10----------10----|-------------------o||
|-------12-11-12----11-|-(11)--(11)\--------||
|----------------------|--------------------||
|----------------------|-------------------o||
|----------------------|--------------------||


  2.
3/4                   7/8
   E  S  E  E  E  S E   +Q   +Q    Q.
|---------------------|-----------------|
|-12-10---------------|-----------------|
|-------12-11-11-12-9-|-(9)--(9)\-------|
|---------------------|-----------------|
|---------------------|-----------------|
|---------------------|-----------------|


Guitar Solo 2
  $$
3/4                    7/8
   S  S  S E  E  E.  E    S  S  S  S  S  E  E  S  E  E
|----------------------|-------------------------------|
|---------------12--13-|-12-13-12-10----------10-------|
|-11-12-11-9-----------|-------------12-11-12----12-11-|
|------------12--------|-------------------------------|
|----------------------|-------------------------------|
|----------------------|-------------------------------|


3/4                    7/8
                           ~~~~~~~~~~~
   E  S  E  E  E  S  E    +H      +Q.
|----------------------|----------------|
|-12-10----------10----|----------------|
|-------12-11-12----11-|-(11)----(11)---|
|----------------------|----------------|
|----------------------|----------------|
|----------------------|----------------|


3/4                      7/8
   S  S  S S  S E  E.  E    S  S  S  S  S  S S  E  S  E  E
|------------------------|---------------------------------|
|-----------------12--13-|-12-13-12-10------------10-------|
|-11-12-11-9-------------|-------------12-11-9-12----12-11-|
|------------12-9--------|---------------------------------|
|------------------------|---------------------------------|
|------------------------|---------------------------------|


3/4                   7/8
   E  S  E  E  E  S E   +E  +H.
|---------------------|-------------|
|-12-10---------------|-------------|
|-------12-11-11-12-9-|-(9)-(9)\----|
|---------------------|-------------|
|---------------------|-------------|
|---------------------|-------------|


   3/4                7/8
     E  S  E E  E. E    E  S  E  E E.  E  E
||-------------------|----------------------|
||o-10---------------|-12-10-------------13-|
||-----12-11-9-----9-|-------12-11-9--12----|
||-------------10----|----------------------|
||o------------------|----------------------|
||-------------------|----------------------|


  1.
3/4                   7/8
   S  E.  E  E  S  E.    +H.       +E
|--------------10-----|-----------------||
|-12-13--12-13----12--|-(12)------(12)-o||
|---------------------|-----------------||
|---------------------|-----------------||
|---------------------|----------------o||
|---------------------|-----------------||


  2.
                            D.S.S.
3/4                   7/8
   S  E.  E  E  S  E.    +H.       +E
|---------------------|----------------|
|-12-13--12-10----10--|-(10)------(10)-|
|--------------12-----|----------------|
|---------------------|----------------|
|---------------------|----------------|
|---------------------|----------------|


3/4       7/8
  H.        H.      E
|---------|-----------*|
|---------|-----------*|
|---------|-----------*|
|---------|-----------*|
|---------|-----------*|
|---------|-----------*|


Duration Legend
---------------
W - whole; H - half; Q - quarter; E - 8th; S - 16th; T - 32nd; X - 64th; a - 
acciaccatura
+ - note tied to previous; . - note dotted; .. - note double dotted
Uncapitalized letters represent notes that are staccato (1/2 duration)
Irregular groupings are notated above the duration line
Duration letters will always appear directly above the note/fret number it 
represents the
duration for.  Duration letters with no fret number below them represent 
rests.  Multi-
bar rests are notated in the form Wxn, where n is the number of bars to rest 
for.  Low
melody durations appear below the staff

Tablature Legend
----------------
h   - hammer-on
p   - pull-off
b   - bend
pb  - pre-bend
r   - bend release (if no number after the r, then release immediately)
/\  - slide into or out of (from/to "nowhere")
s   - legato slide
S   - shift slide
  - natural harmonic
[n]  - artificial harmonic
n(n) - tapped harmonic
~   - vibrato
tr  - trill
T   - tap
TP  - trem. picking
PM  - palm muting
\n/  - tremolo bar dip; n = amount to dip
\n  - tremolo bar down
n/  - tremolo bar up
/n\  - tremolo bar inverted dip
=   - hold bend; also acts as connecting device for hammers/pulls
<>  - volume swell (louder/softer)
x   - on rhythm slash represents muted slash
o   - on rhythm slash represents single note slash

Misc Legend
-----------
|  - bar
||  - double bar
||o - repeat start
o|| - repeat end
*|  - double bar (ending)
:  - bar (freetime)
$  - Segno
&  - Coda
Tempo markers -  = BPM(8/16=s8/s16), where s8 = swing 8ths, 
s16 = swing 16ths


***************************************************************************************
* Generated using Power Tab Editor by Brad Larsen - 
http://powertab.guitarnetwork.org *
***************************************************************************************

VGJam Tabs Pitfall: The Mayan Adventure - "Mines"
Tabs database last modified Tuesday, 01-Nov-2016 19:14:53 UTC.
Copyright © 1999 - 2016 VideoGameJam.com. All rights reserved.