VGJam Tabs Pitfall: The Mayan Adventure
Pitfall: The Mayan Adventure
"Mines" - Bass tab
Platform(s):Personal Computer / Macintosh
Composed by:Media Labs
Tabbed by:Vincent Bouchard
Last modified:2005-07-14
Print it:Original file (.TXT)
Hear it:MIDI file
                        PITFALL - MINES THEME (Bassline)
                            As recorded by Media Labs

Music by Media Labs
Transcribed by Vincent Bouchard

Gtr I (E A D G) - 'Bass'

Percussion Intro
  Q=110
  N.C.
3/4       7/8         3/4       7/8
  Gtr I
  H.        H.      E   H.        H.      E
|---------|-----------|---------|-----------|
|---------|-----------|---------|-----------|
|---------|-----------|---------|-----------|
|---------|-----------|---------|-----------|


   Bass Intro
   3/4            7/8
    E S E E E. E   E S E E E. E E
||---------------|----------------|
||o--------------|----------------|
||o--------------|----------------|
||--5-5-5-5-5--5-|-3-3-3-3-3--3-2-|


  1.
3/4             7/8
  S E E E S E E   S E E E. E E E
|---------------|-----------------||
|---------------|----------------o||
|-----------2-2-|---2---3--2-3-2-o||
|-2-2-2-2-5-----|-5---5-----------||


  2.
3/4             7/8
  S E E E S E E   S E E E. E E E
|---------------|----------------|
|---------------|-2--------------|
|-----------2-5-|---2---3--2-3-2-|
|-2-2-2-2-5-----|-----5----------|


   Verse 1
    $
   3/4            7/8
    E S E E E. E   E S E E E S E E
||---------------|-----------------|
||o-2-2-2-2-2----|-----------------|
||o------------5-|-3-3-3-3-3-3-3-3-|
||---------------|-----------------|


  1.
3/4             7/8
  E S E E E S E   E S E S E E E E
|---------------|------------------||
|---------------|-------2-4-5-4-5-o||
|-------------2-|-2-2-2-----------o||
|-5-5-5-5-5-5---|------------------||


  2.
3/4             7/8
  E S E E E S E   E S E S E E E E
|---------------|-----------------|
|-------------2-|-2-2-2-2-4-5-----|
|---------------|-------------3-2-|
|-5-5-5-5-5-5---|-----------------|


Chorus 1
3/4            7/8
  E S E E E. E   E S E E E. E E
|--------------|----------------|
|--------------|----------------|
|--------------|----------------|
|-5-5-5-5-5--5-|-3-3-3-3-3--3-2-|


                           D.S.
3/4             7/8
  S E E E S E E   S E E E. E E E
|---------------|----------------|
|---------------|----------------|
|-----------2-2-|---2---3--2-3-2-|
|-2-2-2-2-5-----|-5---5----------|


3/4            7/8
  E S E E E. E   E S E E E. E E
|--------------|----------------|
|--------------|----------------|
|--------------|----------------|
|-5-5-5-5-5--5-|-3-3-3-3-3--3-2-|


3/4             7/8
  S E E E S E E   S E E E. E E E
|---------------|----------------|
|---------------|-2--------------|
|-----------2-5-|---2---3--2-3-2-|
|-2-2-2-2-5-----|-----5----------|


Bridge 1
3/4          7/8           3/4          7/8
  E. E. Q  E   Q  E. E. Q    E Q  E. E.   Q  E Q  E. S
|------------|-------------|------------|--------------|
|------------|-------------|------------|--------------|
|------------|-------------|------------|--------------|
|-2--2--2--2-|-5--2--2--2--|-2-5--2--2--|-2--2-5--2--2-|


3/4       7/8            3/4            7/8
  H.        E. E. Q  E E   +E  E. E. Q    E Q  E. E. E
|---------|--------------|--------------|--------------|
|---------|--------------|--------------|--------------|
|---------|--------------|--------------|--------------|
|---------|-2--2--2--2-5-|-(5)-2--2--2--|-2-5--2--2--2-|


3/4               7/8             3/4              7/8
  E. S E S E. E     E. E. E E E E   E. S S E E S E   Q  +S  E S E E S S
|---------------||----------------|----------------|---------------------|
|------2---2----||o---------4-2---|----------------|---------------------|
|--------5----5-||o-3-----3-----3-|--------------2-|-2--(2)---2----------|
|-2--5----------||-----5----------|-5--3-5-3-5-5---|--------5---5-3-3-2--|


Guitar Solo 1
3/4               7/8             3/4              7/8
  E. S E S E. E     E. E. E E E E   E. S S E E S E   E S E S E E E E
|----------------||---------------|----------------|-----------------|
|------2---2----o||---------4-2---|----------------|-----2-2---2-----|
|--------5----5-o||-3-----3-----3-|--------------2-|---2-----5---5-3-|
|-0--5-----------||----5----------|-5--3-5-3-5-5---|-2---------------|


3/4            7/8              3/4
  E S E. E E E   E S E E E. E E   S E Q  S E E
|--------------|----------------|--------------|
|--------------|----------------|--------------|
|--------------|---------5------|----------2-2-|
|-5-5-5--5-5-5-|-3-3-3-3----3-2-|-2-2-2--5-----|


7/8                  3/4             7/8
  S E E E. E S S S S   E. S E S E. E   E. E. E E E E
|--------------------|---------------|---------------|
|--------------------|------2---2----|---------4-2---|
|---2---3--2-3-2-----|--------5----5-|-3-----3-----3-|
|-5---5----------5-3-|-0--5----------|----5----------|


3/4              7/8
  E. S S E E S E   E S E S E E E E
|----------------|-----------------|
|----------------|-----2-2---2-----|
|--------------2-|---2-----5---5-3-|
|-5--3-5-3-5-5---|-2---------------|


Bridge 2
3/4          7/8           3/4          7/8
  E. E. Q  E   Q  E. E. Q    E Q  E. E.   Q  E Q  E. S
|------------|-------------|------------|--------------|
|------------|-------------|------------|--------------|
|------------|-------------|------------|--------------|
|-2--2--2--2-|-5--2--2--2--|-2-5--2--2--|-2--2-5--2--2-|


3/4       7/8            3/4            7/8
  H.        E. E. Q  E E   +E  E. E. Q    E Q  E. E. E
|---------|--------------|--------------|--------------|
|---------|--------------|--------------|--------------|
|---------|--------------|--------------|--------------|
|---------|-2--2--2--2-5-|-(5)-2--2--2--|-2-5--2--2--2-|


3/4        7/8           3/4       7/8
  E E H      H.      +E    H.        H.      +E
|----------|-------------|---------|-------------|
|----------|-------------|---------|-------------|
|-3--------|-3-------(3)-|-2-------|-------------|
|---5-3----|-------------|---------|-5-------(5)-|


3/4            7/8
  E S E E E. E   E S E E E S E E
|--------------|-----------------|
|-2-2-2-2-2----|-----------------|
|------------5-|-3-3-3-3-3-3-3-3-|
|--------------|-----------------|


3/4             7/8
  E S E E E S E   E S E S E E E E
|---------------|-----------------|
|-------------2-|-2-2-2-2-4-5-----|
|---------------|-------------3-2-|
|-5-5-5-5-5-5---|-----------------|


   Chorus 2
   3/4            7/8
    E S E E E. E   E S E E E. E E
||---------------|----------------|
||o--------------|----------------|
||o--------------|----------------|
||--5-5-5-5-5--5-|-3-3-3-3-3--3-2-|


  1.
3/4             7/8
  S E E E S E E   S E E E. E E E
|---------------|-----------------||
|---------------|----------------o||
|-----------2-2-|---2---3--2-3-2-o||
|-2-2-2-2-5-----|-5---5-----------||


  2.
3/4             7/8
  S E E E S E E   S E E E. E E E
|---------------|----------------|
|---------------|-2--------------|
|-----------2-5-|---2---3--2-3-2-|
|-2-2-2-2-5-----|-----5----------|


   Verse 2
   3/4            7/8
    E S E E E. E   E S E E E S E E
||---------------|-----------------|
||o-2-2-2-2-2----|-----------------|
||o------------5-|-3-3-3-3-3-3-3-3-|
||---------------|-----------------|


  1.
3/4             7/8
  E S E E E S E   E S E S E E E E
|---------------|------------------||
|---------------|-------2-4-5-4-5-o||
|-------------2-|-2-2-2-----------o||
|-5-5-5-5-5-5---|------------------||


  2.
3/4             7/8
  E S E E E S E   E S E S E E E E
|---------------|-----------------|
|-------------2-|-2-2-2-2-4-5-----|
|---------------|-------------3-2-|
|-5-5-5-5-5-5---|-----------------|


   Guitar Solo 2
    $$
   3/4             7/8
    E. S E S E. E   E. E. E E E E
||----------------|---------------|
||o------2---2----|---------4-2---|
||o--------5----5-|-3-----3-----3-|
||--0--5----------|----5----------|


                   1.                     2.
3/4              7/8                    7/8
  E. S S E E S E   Q  +S  E S E E S S     E S E S E E E E
|----------------|---------------------||-----------------|
|----------------|--------------------o||-----2-2---2-----|
|--------------2-|-2--(2)---2---------o||---2-----5---5-3-|
|-5--3-5-3-5-5---|--------5---5-3-3-2--||-2---------------|


   3/4            7/8
    E S E. E E E   E S E E E. E E
||---------------|----------------|
||o--------------|----------------|
||o--------------|---------5------|
||--5-5-5--5-5-5-|-3-3-3-3----3-2-|


                            D.S.S.
3/4            7/8
  S E Q  S E E   S E E E. E S S S S
|--------------|---------------------||
|--------------|--------------------o||
|----------2-2-|---2---3--2-3-2-----o||
|-2-2-2--5-----|-5---5----------5-3--||


3/4       7/8
  H.        +H.      +E
|---------|--------------*|
|---------|--------------*|
|---------|--------------*|
|-0-------|-(0)------(0)-*|


Duration Legend
---------------
W - whole; H - half; Q - quarter; E - 8th; S - 16th; T - 32nd; X - 64th; a - 
acciaccatura
+ - note tied to previous; . - note dotted; .. - note double dotted
Uncapitalized letters represent notes that are staccato (1/2 duration)
Irregular groupings are notated above the duration line
Duration letters will always appear directly above the note/fret number it 
represents the
duration for.  Duration letters with no fret number below them represent 
rests.  Multi-
bar rests are notated in the form Wxn, where n is the number of bars to rest 
for.  Low
melody durations appear below the staff

Tablature Legend
----------------
h   - hammer-on
p   - pull-off
b   - bend
pb  - pre-bend
r   - bend release (if no number after the r, then release immediately)
/\  - slide into or out of (from/to "nowhere")
s   - legato slide
S   - shift slide
  - natural harmonic
[n]  - artificial harmonic
n(n) - tapped harmonic
~   - vibrato
tr  - trill
T   - tap
TP  - trem. picking
PM  - palm muting
\n/  - tremolo bar dip; n = amount to dip
\n  - tremolo bar down
n/  - tremolo bar up
/n\  - tremolo bar inverted dip
=   - hold bend; also acts as connecting device for hammers/pulls
<>  - volume swell (louder/softer)
x   - on rhythm slash represents muted slash
o   - on rhythm slash represents single note slash

Misc Legend
-----------
|  - bar
||  - double bar
||o - repeat start
o|| - repeat end
*|  - double bar (ending)
:  - bar (freetime)
$  - Segno
&  - Coda
Tempo markers -  = BPM(8/16=s8/s16), where s8 = swing 8ths, 
s16 = swing 16ths


***************************************************************************************
* Generated using Power Tab Editor by Brad Larsen - 
http://powertab.guitarnetwork.org *
***************************************************************************************

VGJam Tabs Pitfall: The Mayan Adventure - "Mines"
Tabs database last modified Tuesday, 01-Nov-2016 19:14:53 UTC.
Copyright © 1999 - 2016 VideoGameJam.com. All rights reserved.