VGJam Tabs Quake II
Quake II
"Operation Overlord" - Guitar tab
Platform(s):Personal Computer / Macintosh
Composed by:Sonic Mayhem
Soundtrack:Quake II game disc (track 02)
Tabbed by:Mark Hall
Last modified:2000-07-18
Print it:Original file (.TXT)
Tabbed by Mark Hall
xmark@mail.com

Standard tuning (EADGBe)

Intro riff
e---------------------
B---------------------
G---------------------
D-7-9-----7-9---------
A-5-7-----5-7-----4-5-
E-----0-0-----0-0-2-3-

Just after the intro
e------------------------
B------------------------
G---------------------/9-
D---------------------/9-
A-2-2-2-2---2-2-2-2------
E-0-0-0-0---0-0-0-0------
 pm................

Next part...
e----------------------------------------------------
B----------------------------------------------------
G----------------------------------------------------
D-----------------/9---9-----------------------------
A-2-2-2-2---5-4-2-/7---7---2-2-2-2---5-4-2---8--5--4-
E-0-0-0-0---3-2-0----0-----0-0-0-0---3-2-0-0-6--3--2-
pm  ......                   .....

Main riff (really heavy distortion)
e----------------------------------
B----------------------------------
G----------------------------------
D-2-----8---4-5---8-7---4---4-5-4-
A-2-----8---4-5---8-7---4---4-5-4-
E-0---0-6-0-2-3-0-6-5-0-2-0-2-3-2-

This is playing in the background
The spacing between the notes is equal to the length of the main riff.
e----------------------------------
B----------------------------------
G----------------------------------
D-9~~~-8~~~-9~~~-10~~~-------------
A----------------------------------
E----------------------------------

VGJam Tabs Quake II - "Operation Overlord"
Tabs database last modified Tuesday, 01-Nov-2016 19:14:53 UTC.
Copyright © 1999 - 2016 VideoGameJam.com. All rights reserved.