VGJam Tabs Quake II
Quake II
"Rage" - Guitar tab
Platform(s):Personal Computer / Macintosh
Composed by:Sonic Mayhem
Soundtrack:Quake II game disc (track 03)
Tabbed by:John McGowan
Last modified:2001-11-07
Print it:Original file (.TXT)
Rage
  Tabbed by John McGowan
  john@filedump.org

D Tuning (D,G,C,F,A,d)


Opening Riff repeats 4x
d-------------------------------------------------------------------------------------
A-------------------------------------------------------------------------------------
F-------------------------------------------------------------------------------------
C-------------------------------------------------------------------------------------
G-------------------------------------------------------------------------------------
D--0h1-0h1-00---0h1-0h1-00---0h1-0h1-00---00h1-0h1-00--------------------------------


2nd riff
d-------------------------------------------------------------------------------------
A-------------------------------------------------------------------------------------
F---------------------------------------------------------------------------3---------
C----2--2--2--2-------------------2--2--2--2-------------------2--2--2--2---3---3-----
G----2--2--2--2-----------0-1-2---2--2--2--2-----------0-1-2---2--2--2--2---1---3-----
D--0-0--0--0--0-0-2-3-0-3-------0-0--0--0--0-0-2-3-0-3-------0-0--0--0--0-0-----1-----


3rd riff ^=slide
d-------------------------------------------------------------------------------------
A-------------------------------------------------------------------------------------
F-------------------------------------------------------------------------------------
C-----------------------0---0-2-3----------------------0---1^2-2-2-2------------------
G-------------0-1-2-0-2---2------------------0-1-2-0-2---2----------------------------
D--0--2-3-0-3---------------------0--2-3-0-3------------------------------------------

d-------------------------------------------------------------------------------------
A-------------------------------------------------------------------------------------
F--------------------------------------------------3----------------------------------
C-----------------------0---0-2-3------------------3--3-------------------------------
G-------------0-1-2-0-2---2------------------0-1-2-1--3-------------------------------
D--0--2-3-0-3---------------------0--2-3-0-3----------1-------------------------------


4th riff (Stuttering riff)
d-------------------------------------------------------------------------------------
A-------------------------------------------------------------------------------------
F-------------------------------------------------------------------------------------
C-------------------------------------------------------------------------------------
G-------------------------------------------------------------------------------------
D-0-1-0-0---2-3-2---3-5-3-5-3-3---5-6-5-5---------------------------------------------


VGJam Tabs Quake II - "Rage"
Tabs database last modified Tuesday, 01-Nov-2016 19:14:53 UTC.
Copyright © 1999 - 2016 VideoGameJam.com. All rights reserved.