VGJam Tabs Quake II
Quake II
"March of the Stroggs" - Guitar tab
Platform(s):Personal Computer / Macintosh
Composed by:Sonic Mayhem
Soundtrack:Quake II game disc (track 05)
Tabbed by:Mark Hall
Last modified:2000-07-18
Print it:Original file (.TXT)
tabbed by Mark Hall
xmark@mail.com

Main riff (slight changes throughout song)
e----------------
B----------------
G----------------
D--7b8-5---4b5-2-
A--7b8-5---4b5-2-
E--5b6-3---2b3-0-

riff 2
e------------------------------------------------------------------------
B------------------------------------------------------------------------
G----------------------------------3-------------------------------------
D----------------------------------3-----------------------------------5-
A--2-2-2--2-2-2-2---2-2-2--2-2-2-2-1---2-2-2--2-2-2-2---2-2-2--2-2-2-2-5-
E--0-0-0--0-0-0-0---0-0-0--0-0-0-0-----0-0-0--0-0-0-0---0-0-0--0-0-0-0-3-
 pm..............................     ...............................

Transition
e-----------------------------
B-----------------------------
G-----------------------------
D--6\5-3-----6\5-----6\5-3----
A--4\3-1-5---4\3-5---4\3-1-5--
E--------3-------3---------3--

Final riff
e-----------------------------
B-----------------------------
G-----------------------------
D--8\7-5-2---8\7-2---8\7-5-2--
A--8\7-5-2---8\7-2---8\7-5-2--
E--6\5-3-0---6\5-0---6\5-3-0--

VGJam Tabs Quake II - "March of the Stroggs"
Tabs database last modified Tuesday, 01-Nov-2016 19:14:53 UTC.
Copyright © 1999 - 2016 VideoGameJam.com. All rights reserved.