VGJam Tabs Quake II
Quake II
"Quad Machine" - Guitar tab
Platform(s):Personal Computer / Macintosh
Composed by:Sonic Mayhem
Soundtrack:Quake II game disc (track 07)
Tabbed by:Mark Hall
Last modified:2000-07-18
Print it:Original file (.TXT)
Tabbed by Mark Hall
xmark@mail.com

Flat tuning (D#G#C#F#A#d#)

Main riff  
d#---------------------------------
A#---------------------------------
F#---------------------------------
C#---------------------------------
G#---------5h7-5h7-----5h7-----2h3-
D#-0-0-0-0---------0-0-----0-0-----
pm . . . .         . .     . .

d#---------------------------------
A#---------------------------------
F#---------------------------------
C#---------------------------------
G#-------------5h7-----2h3-----0h2-
D#-0-0-0-0-0-0-----0-0-----0-0-----
pm . . . . . .     . .     . .

Lead-in to second riff
C#-5-4-3-
G#-5-4-3-
D#-3-2-1-

Second riff
d#-----------------------------------------------------------
A#-----------------------------------------------------------
F#-----------------------------------------------------------
C#-2-2--2--2--2--2-----------------2-2--2--2--2--2-----------
G#-2-2--2--2--2--2-----------------2-2--2--2--2--2-------2---
D#-0-0--0--0--0--0-0-2-0-3-0-------0-0--0--0--0--0-0-3-0---0-
pm                 . . . . .                       . . . . .

d#-----------------------------------------------------------
A#-----------------------------------------------------------
F#-----------------------------------------------------------
C#-2-2--2--2--2--2-----------------2-2--2--2--2--2---------0-
G#-2-2--2--2--2--2-----------------2-2--2--2--2--2-----0-2---
D#-0-0--0--0--0--0-0-2-0-3-0-------0-0--0--0--0--0-0-3-------
pm                 . . . . .                       . . . . .

Third riff
d#-----------------------------------------------------------
A#-----------------------------------------------------------
F#-----------------------------------------------------------
C#-9---7---3-------------9---7---3---------------------------
G#-7---5---1-2-5-8~~~----7---5---1-2-5-8~~~----8-7-5-2-------
D#-----------0-3-6~~~--------------0-3-6~~~----6-5-3-0-------
pm                                             . . . .

VGJam Tabs Quake II - "Quad Machine"
Tabs database last modified Tuesday, 01-Nov-2016 19:14:53 UTC.
Copyright © 1999 - 2016 VideoGameJam.com. All rights reserved.