VGJam Tabs Quake II
Quake II
"Big Gun" - Guitar tab
Platform(s):Personal Computer / Macintosh
Composed by:Sonic Mayhem
Soundtrack:Quake II game disc (track 08)
Tabbed by:Mark Hall
Last modified:2000-07-18
Print it:Original file (.TXT)
Tabbed by Mark Hall
xmark@mail.com

Tuning: Standard(EADGBe)

Intro riff(Repeated throughout song)
e-----------------------------------
B-----------------------------------
G-----------------------------------
D-2/3---3/4---4/5---2-2-2-2-2-4-4-5-
A-2/3---3/4---4/5---2-2-2-2-2-4-4-5-
E-0-----0-----0-----0-0-0-0-0-2-2-3-
                   pm........

At the same time this is playing on the 2 highest strings:
(Repeat each one 8 times)
e-0---0---0---0-
B-5---6---7---8-

e---------------------------
B---------------------------
G-9---8---8-5---4---3---3---
D-9---8---8-5---4---3---3-2-
A-7---6---6-3---2---1---1-2-
E-7---6---6-3---2---1---1-0-

This part took me forever to figure out.  It has a weird
effect added to it...
e---------0-----------0-----------0--------------------
B-------0----------------------------------------------
G-----------------7-----------7-----------3-------3----
D---------------------------------------3-------3------
A-----2---------5-----------5--------------------------
E-0---------6-----------5-------------3-------1--------

e-----0-------0-------0--------------------------
B---0--------------------------------------------
G-----------7-------7---------3-------3----------
D-2-------8-------7---------3-------3------------
A-2-------8-------7-------5-------3--------------
E-0-------6-------5-------3-------1--------------

VGJam Tabs Quake II - "Big Gun"
Tabs database last modified Tuesday, 01-Nov-2016 19:14:53 UTC.
Copyright © 1999 - 2016 VideoGameJam.com. All rights reserved.