VGJam Tabs Rainbow Six: Raven Shield
Rainbow Six: Raven Shield
"Main Menu 3" - Guitar tab
Platform(s):Personal Computer / Macintosh
Composed by:Bill Brown
Tabbed by:Vincent Bouchard
Last modified:2005-02-12
Print it:Original file (.TXT)
                     RAINBOW SIX: RAVEN SHIELD - MAIN MENU 3
                            As recorded by Bill Brown

Music by Bill Brown
Transcribed by Vincent Bouchard

Gtr I (E A D G B E) - 'Lead'

 Theme A ( 0:06 )
  Q=70
 4/4
  Gtr I
  S S +E  S  S  +E   +H       S  S E  S S  E  +H
|---------------------------|------------------------|
|---------------------------|------8-----------------|
|---7-(7)-9-10-(10)-(10)----|-9-10---10-9-10-(10)----|
|-7-------------------------|------------------------|
|---------------------------|------------------------|
|---------------------------|------------------------|


  S S E S  S E +H       S S  E S S E +Q.    E
|---------------------|-----------------------|
|---------------------|-----------------------|
|-9-7-9-7----7-(7)----|-7-9-10-9-7-9-(9)------|
|---------10----------|--------------------10-|
|---------------------|-----------------------|
|---------------------|-----------------------|


   E  S  S  E  +E   +H        S  S  E  S  S  E  +H
|--------------------------|---------------------------|
|--------------------------|-------11------------------|
|-10-10-12-13-(13)-(13)----|-12-13----13-12-13-(13)----|
|--------------------------|---------------------------|
|--------------------------|---------------------------|
|--------------------------|---------------------------|


   S  S  E  S  S  E  +Q    S  S  E    E  E  E  +E   +H
|----------------------------------|-----------------------|
|----11-13-11----11-(11)-----------|-----------------------|
|-13----------13----------13-12-10-|----10-12-(12)-(12)----|
|----------------------------------|-12--------------------|
|----------------------------------|-----------------------|
|----------------------------------|-----------------------|


 Theme B ( 0:32 )
  Q=82
  E S S  E  +E   +H       S  S E  S S  E  +H
|-----------------------|------------------------|
|-----------------------|------8-----------------|
|-7-7-9-10-(10)-(10)----|-9-10---10-9-10-(10)----|
|-----------------------|------------------------|
|-----------------------|------------------------|
|-----------------------|------------------------|


  S S E S  S E +H       S S  E S S E +Q.   S  S
|---------------------|-------------------------|
|---------------------|-------------------------|
|-9-7-9-7----7-(7)----|-7-9-10-9-7-9-(9)---7----|
|---------10----------|----------------------10-|
|---------------------|-------------------------|
|---------------------|-------------------------|


   E  S  S  E  +E   +H        S  S  E  E  E  +H
|--------------------------|------------------------|
|--------------------------|-------11----13-(13)----|
|-10-10-12-13-(13)-(13)----|-12-13------------------|
|--------------------------|----------13------------|
|--------------------------|------------------------|
|--------------------------|------------------------|


   S  S  E  S  S  E  +H        S  S  E  S  S  E  +H        S  S  E  +H.
|---------------------------|---------------------------|------------------*|
|-11----11------------------|---------------------------|------------------*|
|----13----13-12-10-(10)----|-10-12-13-12-10-12-(12)----|-10----10-(10)----*|
|---------------------------|---------------------------|----13------------*|
|---------------------------|---------------------------|------------------*|
|---------------------------|---------------------------|------------------*|


Duration Legend
---------------
W - whole; H - half; Q - quarter; E - 8th; S - 16th; T - 32nd; X - 64th; a - acciaccatura
+ - note tied to previous; . - note dotted; .. - note double dotted
Uncapitalized letters represent notes that are staccato (1/2 duration)
Irregular groupings are notated above the duration line
Duration letters will always appear directly above the note/fret number it represents the
duration for.  Duration letters with no fret number below them represent rests.  Multi-
bar rests are notated in the form Wxn, where n is the number of bars to rest for.  Low
melody durations appear below the staff

Tablature Legend
----------------
 h   - hammer-on
 p   - pull-off
 b   - bend
 pb  - pre-bend
 r   - bend release (if no number after the r, then release immediately)
 /\  - slide into or out of (from/to "nowhere")
 s   - legato slide
 S   - shift slide
  - natural harmonic
[n]  - artificial harmonic
n(n) - tapped harmonic
 ~   - vibrato
 tr  - trill
 T   - tap
 TP  - trem. picking
 PM  - palm muting
\n/  - tremolo bar dip; n = amount to dip
 \n  - tremolo bar down
 n/  - tremolo bar up
/n\  - tremolo bar inverted dip
 =   - hold bend; also acts as connecting device for hammers/pulls
 <>  - volume swell (louder/softer)
 x   - on rhythm slash represents muted slash
 o   - on rhythm slash represents single note slash

Misc Legend
-----------
 |  - bar
||  - double bar
||o - repeat start
o|| - repeat end
*|  - double bar (ending)
 :  - bar (freetime)
 $  - Segno
 &  - Coda
Tempo markers -  = BPM(8/16=s8/s16), where s8 = swing 8ths, s16 = swing 16ths


***************************************************************************************
* Generated using Power Tab Editor by Brad Larsen - http://powertab.guitarnetwork.org *
***************************************************************************************

VGJam Tabs Rainbow Six: Raven Shield - "Main Menu 3"
Tabs database last modified Tuesday, 01-Nov-2016 19:14:53 UTC.
Copyright © 1999 - 2016 VideoGameJam.com. All rights reserved.