VGJam Tabs Super Fighter
Super Fighter
"Title" - Guitar tab
Platform(s):Personal Computer / Macintosh
Composed by:Young Soung Wing
Tabbed by:Deezer
Last modified:2002-01-10
Print it:Original file (.TXT)
Hear it:MIDI file
#----------------------------------PLEASE NOTE---------------------------------#
#This file is the author's own work and represents their interpretation of the #
#song. You may only use this file for private study, scholarship, or research. #
#------------------------------------------------------------------------------#

Super Fighter (Personal Computer)
"Title theme"

Originally composed by: Young Soung Wing
------------------------------------------------------------------------------
Tabbed by: Deezer (deezer@kontek.net)
For http://www.kontek.net/vgjam/
------------------------------------------------------------------------------

Symbols used:
 \ = slide down
 / = slide up

Standard tuning - (low to high) EADGBe


                         *
-----------------------------------------------------------
-----------------------------------------------------------
-----------5----7-------------5----7-------------4----5----
--7------------------7--\6/7-------------------------------
----------------------------------------8------------------
-----------------------------------------------------------
                         * substitute whammy bar dip if using electric guit.

----------------------------------------------
-----------------5----------------------------
-----------4-5-7---7-5-4------------5----7----
-------------------------5-7------------------
--8-------------------------------------------
----------------------------------------------

-----------------------------------------------------------
-----------5-----------------------------------------------
----------------7--5-----------4----5----------------------
--7-------------------5---------------------------5--------
-----------------------------------------8-----------------
-----------------------------------------------------------

-----------------------------------------------------------
----------------6------------------6-----------------------
--5--------8---------5--------8------------------7----8----
----------------------------------------6------------------
-----------------------------------------------------------
-----------------------------------------------------------

--------------------------------------------------4/6------4--------------
----------------------------------6------------8--------------4--6--------
--------------------5--------8---------4/5--8-----------------------------
--6--------8--------------------------------------------------------------
--------------------------------------------------------------------------
--------------------------------------------------------------------------

-------------------------------
-------------------------------
--8----7-----------------------
----------8--6--------8--------
-------------------------------
-------------------------------


Last modified: 01/10/2002

VGJam Tabs Super Fighter - "Title"
Tabs database last modified Tuesday, 01-Nov-2016 19:14:53 UTC.
Copyright © 1999 - 2016 VideoGameJam.com. All rights reserved.