VGJam Tabs Yoshi's Island DS
Yoshi's Island DS
"Title screen" - Guitar tab
Platform(s):Nintendo DS
Composed by:Yutaka Minobe, CHAMY.Ishi
Tabbed by:Deezer
Last modified:2016-11-01
Print it:Original file (.TXT)
#----------------------------------PLEASE NOTE---------------------------------#
#This file is the author's own work and represents their interpretation of the #
#song. You may only use this file for private study, scholarship, or research. #
#------------------------------------------------------------------------------#

Yoshi's Island DS (Nintendo DS)
"Title screen"

Originally composed by: Yutaka Minobe, CHAMY.Ishi
------------------------------------------------------------------------------
Tabbed by: Deezer (deezer AT videogamejam DOT com)
For http://www.videogamejam.com
------------------------------------------------------------------------------

Sure, Yoshi's Island DS is getting chastised for its horrible, horrible
soundtrack, but the title screen has this catchy, simple guitar part that
hooked me instantly.


Standard tuning: (low to high) EADGBe

   Intro [beach sounds]

      E  S E  E  E  E  S E  E   4x
E||-----------------------------||
B||-----------2----------3------||
G||*-------4-----------2-------*||
D||*-----2----------4-------4--*||
A||---0----------0--------------||
E||-----------------------------||


  Part A [harmonica enters]

     E  S E  E  E  E  S E  E   3x  E  S E  E  E  E  E  E  S  
||-----------------------------||---------------------------|
||-----------2----------3------||----------2-----------2----|
||*-------4-----------2-------*||-------4-----------4-------|
||*-----2----------4-------4--*||-----2----------2--------2-|
||---0----------0--------------||--0----------0-------------|
||-----------------------------||---------------------------|


  E  S E  E  E  E  S E  E     E  S E  E  E  E  S E  E   
----------0----------0-----|----------0--------2-0-----|
-------3-----------3-------|-------3-------------------|
-----2----------2-------2--|-----2----------1-------1--|
--0----------0-------------|--2----------2-------------|
---------------------------|---------------------------|
---------------------------|---------------------------|


                                Part B [xylophone enters]

    E  S E  E  E  E  S E  E   4x  E  S E  E  E  E  S E  E   
|-----------------------------||---------------------------|
|-----------2----------3------||----------2----------2-----|
|*-------4-----------2-------*||-------4-----------4-------|
|*-----2----------4-------4--*||-----2----------2-------2--|
|---0----------0--------------||--0----------0-------------|
|-----------------------------||---------------------------|


  E  S E  E  E  E  S E  E       E  S E  E  E  E  S E  E     
---------------------------||-----------------------------||
----------3----------3-----||-----------2----------3------||
-------2-----------2-------||*-------4-----------2-------*||
-----4----------4-------4--||*-----2----------4-------4--*||
--0----------0-------------||---0----------0--------------||
---------------------------||-----------------------------||


  E  S E  E  E  E  S E  E     E  S E  E  E  E  S E  E   
---------------------------|---------------------------|
----------2----------2-----|----------3----------3-----|
-------4-----------4-------|-------2-----------2-------|
-----2----------2-------2--|-----4----------4-------2--|
--0----------0-------------|--0----------0-------------|
---------------------------|---------------------------|


    E  S E  E  E  E  S E  E   6x
|-----------------------------||
|-----------2----------3------||
|*-------4-----------2-------*||
|*-----2----------4-------4--*||
|---0----------0--------------||
|-----------------------------||

Repeat from Part A.


Duration Legend
---------------
E - 8th
S - 16th

Revision history:
 2016-11-01 - Changed open B string notes to fretted notes, which I think makes
              it easier to play.
 2007-01-11 - First draft.

VGJam Tabs Yoshi's Island DS - "Title screen"
Tabs database last modified Tuesday, 01-Nov-2016 19:14:53 UTC.
Copyright © 1999 - 2016 VideoGameJam.com. All rights reserved.