VGJam Tabs Wave Race: Blue Storm
Wave Race: Blue Storm
"Title theme" - Guitar tab
Platform(s):GameCube
Tabbed by:Deezer
Last modified:2002-03-18
Print it:Original file (.TXT)
#----------------------------------PLEASE NOTE---------------------------------#
#This file is the author's own work and represents their interpretation of the #
#song. You may only use this file for private study, scholarship, or research. #
#------------------------------------------------------------------------------#


Wave Race: Blue Storm (Nintendo GameCube)
"Title theme"

Originally composed by: ?
------------------------------------------------------------------------------
Tabbed by: Deezer (deezer@kontek.net)
For http://www.kontek.net/vgjam/
------------------------------------------------------------------------------

Symbols used:
    / = slide up
NH... = natural harmonic
    \ = slide down
  (n) = ghost note (in this tab, a note still ringing from before)

Standard tuning: (low to high) EADGBe


 G#5           D#5             C#5
-----------------------------------------------------------------
-----------------------------------------------------------------
-8---8---8-8-8---------------------------------------------------
-6---6---6-6-6-8---8-8-8-8-8-8/6-6-----6-6-6---6-6-6---6-6-6-6-6-
---------------6---6-6-6-6-6-6/4-4---4-4-4-4-4-4-4-4-4-4-4-4-4-4-
-----------------------------------------------------------------
                                   NH.       .       .

 G#5           D#5             C#5
-----------------------------------------------------------------
-----------------------------------------------------------------
-8---8---8-8-8---------------------------------------------------
-6---6---6-6-6-8---8-8-8-8-8-8/6-6-------------------------------
---------------6---6-6-6-6-6-6/4-4---4---------------------------
-----------------------------------------------------------------
                                   NH.  

[Bass enters.]

  G#5           D#5             C#5
|-----------------------------------------------------------------|
|-----------------------------------------------------------------|
|-8---8---8-8-8---------------------------------------------------|
|-6---6---6-6-6-8---8-8-8-8-8-8/6-6-----6-6-6---6-6-6---6-6-6-6-6-|
|---------------6---6-6-6-6-6-6/4-4---4-4-4-4-4-4-4-4-4-4-4-4-4-4-|
|-----------------------------------------------------------------| x3
                                    NH.       .       .

 G#5           D#5             C#5
----------------------------------------------------------------
----------------------------------------------------------------
-8---8---8-8-8--------------------------------------------------
-6---6---6-6-6-8---8-8-8-8-8-8/6-6------------------------------
---------------6---6-6-6-6-6-6/4-4---4--------------------------
----------------------------------------------------------------
                                   NH.  

  G#5                              F5          (Fsus2)
|-------------------------------------------------------------------|
|-------------------------------------------------------------------|
|-----------------------------------------------0-------------------|
|-6-------------6-----------6-6-\-3---3---3----(3)-------------(3)/-|
|-6-----------6-6-----------6-6-\-3---3---3----(3)-------------(3)/-|
|-4-----------4-4-----------4-4-\-1---1---1----(1)----------1--(1)/-| x2
                                          [let ring..............] 

 G#5
-------------------------------------------------------------------
-------------------------------------------------------------------
-------------------------------------------------------------------
-6--------------/6----------------------/6---------------/6--------
-6--------------/6----------------------/6---------------/6--------
-4------------4-/4--------------------4-/4-------------4-/4--------

----------------
----------------
----------------
---/6-----------
---/6-----------
-4-/4-----------

Back to beginning.


Last modified: 03/18/2002


VGJam Tabs Wave Race: Blue Storm - "Title theme"
Tabs database last modified Thursday, 17-Apr-2014 20:21:29 CDT.
Copyright © 1999 - 2014 VideoGameJam.com. All rights reserved.