VGJam Tabs Ultima IX: Ascension
Ultima IX: Ascension
"Stones (Chamber)" - Guitar tab
Platform(s):Personal Computer / Macintosh
Tabbed by:FFVison
Last modified:2001-04-10
Print it:Original file (.TXT)
Standard Tuning - E A D G B E

                              Ultima IX: Ascension
                                Stones (Chamber)

	Well this is the Intro Anyway.  Now if only this game weren't so full of bugs.  Oh well, it's got a good soundtrack anyway.  After this intro, the guitar part changes to the background part while a flue comes in and takes over the main part.  it's a good song and I believe it's availible for download at origin's official webpage.  Or at least it used to be.  If anyone cares to add the rest of it, feel free.

|-------7---8-------8-------8-------8------|-10-----8-----7-----7-----7-----7----|
|--10--------------------------------------|-------------------------------------|
|---------------9-------9-------9-------9--|-----9-----9-----9-----9-----9-----9-|
|-----------7------------------------------|--7----------------------------------|
|------------------------------------------|--------------7----------------------|
|------------------------------------------|-------------------------------------|


|-----8-----------7----------------|--------------------|
|----------------------------10----|------10h12p10------|
|-----------9-----------9----------|--------------------|
|-----------------------------7----|--------------------|
|-----7----------------------------|--------------------|
|----------------------------------|--------------------|


|--------------------|----------------------------------|
|------10h12p10------|---10h12p10----8------------------|
|--------------------|--------------------9----7----9---|
|--------------------|----------------------------------|
|--------------------|----------------------------------|
|--------------------|----------------------------------|


|-------7---8-------8-------8-------8------|-10-----8-----7-----7-----7-----7----|
|--10--------------------------------------|-------------------------------------|
|---------------9-------9-------9-------9--|-----9-----9-----9-----9-----9-----9-|
|-----------7------------------------------|--7----------------------------------|
|------------------------------------------|--------------7----------------------|
|------------------------------------------|-------------------------------------|


|-----8-----------7----------------|--------------------|
|----------------------------10----|------10h12p10------|
|-----------9-----------9----------|--------------------|
|-----------------------------7----|--------------------|
|-----7----------------------------|--------------------|
|----------------------------------|--------------------|


|--------------------|----------------------------------|
|------10h12p10------|---10h12p10----8---------8---10---|
|--------------------|--------------------9-------------|
|--------------------|----------------------------------|
|--------------------|----------------------------------|
|--------------------|----------------------------------|

VGJam Tabs Ultima IX: Ascension - "Stones (Chamber)"
Tabs database last modified Tuesday, 01-Nov-2016 19:14:53 UTC.
Copyright © 1999 - 2016 VideoGameJam.com. All rights reserved.