VGJam Tabs Vampire: The Masquerade - Bloodlines
Vampire: The Masquerade - Bloodlines
"Hollywood Theme" - Guitar tab
Platform(s):Personal Computer / Macintosh
Composed by:Rik Schaffer, Womb Music
Tabbed by:redhonour
Last modified:2009-09-02
Date added:2009-09-05
Print it:Original file (.TXT)
Hear it:MIDI file
PC, Vampire the Masquerade - Bloodlines
"Hollywood Theme"

Original Composer: Rik Schaffer, Womb Music




This music plays in the background in the Hollywood area of the game.

Standard Tuning: EADGBe



The song has a lot of effects, but this is the basic melody. Let pretty much everything ring


Part1 
e|----------------------------------------------|----------------------------------------------|
B|----------------------------------------------|----------------------------------------------|
G|-------------0-------2------------------------|----------------------------------------------|
D|--------2---------2--------1---1)--(1)--1p--0-|-------------------2---(2)--------------------|
A|---3------------------------------------------|---3--------3--------------3--3----3----------|
E|----------------------------------------------|----------------------------------------------|


Repeated lots with minor variations. then move on to Part2

Part2
|-----------------------------------------------|-----------------------------------------------|
|-----------------------------------------------|--------------------3--------------------------|
|-----------------------------------------------|----------------------------2------------------|
|-------------1-------0-------1-----------------|---2--------2------------------2---------------|
|---3--------------3-------------3----3---------|---4-------------4------------------4--4-------|
|---4---------------------------------4---------|---5--------------------------------5--5-------|

Part2 repeats a few times then move back into Part1 etc etc

Legend:
p - pull off
() - played sotto
VGJam Tabs Vampire: The Masquerade - Bloodlines - "Hollywood Theme"
Tabs database last modified Tuesday, 01-Nov-2016 19:14:53 UTC.
Copyright © 1999 - 2016 VideoGameJam.com. All rights reserved.