VGJam Tabs Vampire: The Masquerade - Bloodlines
Vampire: The Masquerade - Bloodlines
"Vesuvius" - Guitar tab
Platform(s):Personal Computer / Macintosh
Composed by:Rik Schaffer, Womb Music
Tabbed by:redhonour
Last modified:2009-09-07
Date added:2009-12-07
Print it:Original file (.TXT)
Hear it:MIDI file
PC, Vampire the Masquerade - Bloodlines
"Vesuvius"
Original Composer: Rik Schaffer, Womb Music



This plays while you're in the Vesuvius strip club in Hollywood.


Basic srcuture:

Intro
Part 1 x2 + Part 3
Part 1 x2 + Part 4
bass break
Part 1 x2
Part 2 x8


Intro on Guitar 2

    fades in
e||-------------------|--------------------|
B||-------------------|--------------------|
G||--7----------------|--~-----------------|
D||-------------------|--------------------|
A||-------------------|--------------------|
E||-------------------|--------------------|


Guitar 1
   
Part 1
   
e||---5--5--5--5--5-5-5-5--|          -------5-7--8--7--7-7-7-7--|
B||---6--6--6--6--5-6-5-6--|          --6----6-6--6--6--6-6-6-6--|
G||---7--7--7--7--7-7-7-7--| x3 then  --7----7-7--7--7--7-7-7-7--|
D||---7--5--7-----7-7-7-7--|          --5----5-5--5--5--5-5-5-5--|
A||------------------------|          ---------------------------|
E||------------------------|          ---------------------------|


Part 2

---2-2---2---0---0-0-0-0--|
---0-0---0---0---0-0-0-0--|
---0-0---0---0---0-0-0-0--|
--------------------------|
--------------------------|
--------------------------|


Guitar 2

Part 3
                                                                                     (bend slowly over last bar)
-------------------------------|-----------------------------|-----------------------------|---------|
------------/13------12~-------|------------/13---12~\-------|--------/13---12~----12h-15^-|---------|
--7----------------------------|--7--------------------------|--7--------------------------|---------|
-------------------------------|-----------------------------|-----------------------------|---------|
-------------------------------|-----------------------------|-----------------------------|---------|
-------------------------------|-----------------------------|-----------------------------|---------|


Part 4

-------------------------------|-----------------------------|-----------------------------|---------|
------------/13------12~-------|------------/13---12~\-------|---------/13---12~----12h-13-|--10^~---|
--7----------------------------|--7--------------------------|--7--------------------------|---------|
-------------------------------|-----------------------------|-----------------------------|---------|
-------------------------------|-----------------------------|-----------------------------|---------|
-------------------------------|-----------------------------|-----------------------------|---------|



Legend:
/ = slide up
\ = slide down
~ = vibrato
^ = bend up
VGJam Tabs Vampire: The Masquerade - Bloodlines - "Vesuvius"
Tabs database last modified Tuesday, 01-Nov-2016 19:14:53 UTC.
Copyright © 1999 - 2016 VideoGameJam.com. All rights reserved.