VGJam Tabs Adventures of Lolo
Adventures of Lolo
"Main theme" - Guitar tab
Platform(s):Nintendo Entertainment System
Tabbed by:Vincent Bouchard
Last modified:2006-07-10
Print it:Original file (.TXT)
Hear it:MIDI file
                                   MAIN THEME

Transcribed by Vincent "Ashitaka" Bouchard

Gtr I (E A D G B E) - 'Untitled'
Gtr II (E A D G B E) - 'Untitled'

  Q.=150
  $
  N.C.
12/8
  Gtr I
   E E  E  E E  E  E E  E  E E  E    E E  E  E E  E  Q.    Q.
|---------------------------------|-----------------10----12----|
|---------------------------------|--------------12-------------|
|-12------11-9-11-12------11-9-11-|-12------12------------------|
|------12--------------12---------|------12---------------------|
|---------------------------------|-----------------------------|
|---------------------------------|-----------------------------|
|
| Gtr II
|  E E  E  E Q     E E  E  E E  E    E E  E  E E  E  Q.    Q.
|---------------------------------|-----------------------------|
|---------------------------------|-----------------12----12----|
|---------------------------------|--------------12-------------|
|--9----9-10-------9----9-12---10-|--9----9-12------------------|
|---------------------------------|-----------------------------|
|---------------------------------|-----------------------------|


   E E  E  E  E  E  E E  E  E  E  E    E E  E  E  E  E  Q.    +Q     E
|-13------12-10-12-13------12-10-12-|-13---13-12-10----10----(10)------|
|------13---------------13----------|---------------13-----------------|
|-----------------------------------|----------------------------------|
|-----------------------------------|-------------------------------12-|
|-----------------------------------|----------------------------------|
|-----------------------------------|----------------------------------|
|
|  E E  E  E  Q     E E  E  E  E  E    E E  E  E  E  E  Q.     E  E  E
|-----------------------------------|----------------------------------|
|-10---10-11-------10---10-13----11-|-10---10--------------------------|
|-----------------------------------|---------12-----9-12-----11-------|
|-----------------------------------|-------------------------------10-|
|-----------------------------------|----------------------------------|
|-----------------------------------|----------------------------------|


   E E  E  E E  E  E E  E  E E  E    E E  E  E E  E  Q.    Q.
|---------------------------------|-----------------10----12----|
|---------------------------------|--------------12-------------|
|-12------11-9-11-12------11-9-11-|-12------12------------------|
|------12--------------12---------|------12---------------------|
|---------------------------------|-----------------------------|
|---------------------------------|-----------------------------|
|
|  E E  E  E Q     E E  E  E E  E    E E  E  E E  E  Q.    Q.
|---------------------------------|-----------------------------|
|---------------------------------|-----------------12----12----|
|---------------------------------|--------------12-------------|
|--9----9-10-------9----9-12---10-|--9----9-12------------------|
|---------------------------------|-----------------------------|
|---------------------------------|-----------------------------|


   E E  E  E  E  E  E E  E  E  E  E    E E  E  E  E  E  Q  E  E  E  E
|-13------12-10-12-13------12-10-12-|-13---13-14----14-15-------------|
|------13---------------13----------|------------15----------------15-|
|-----------------------------------|---------------------------16----|
|-----------------------------------|------------------------17-------|
|-----------------------------------|---------------------------------|
|-----------------------------------|---------------------------------|
|
|  E E  E  E  Q     E E  E  E  E  E    E E  E  E  E  E  Q  E  E  Q
|-----------------------------------|---------10----------------------|
|-10---10-11-------10---10-13----11-|-10---10-------13-12-------------|
|-----------------------------------|---------------------------------|
|-----------------------------------|-------------------------9-------|
|-----------------------------------|---------------------------------|
|-----------------------------------|---------------------------------|


   E E  E  E E  E  Q.    Q.      E E  E  H.            E  E  E
|-----------------------14----|--------------------------------|
|-17---16-17---16-17----------|-15---14-15---------------------|
|-----------------------------|--------------------------14-16-|
|-----------------------------|-----------------------17-------|
|-----------------------------|--------------------------------|
|-----------------------------|--------------------------------|
|
|  E E  E  E E  E  Q.    Q.      E E  E  E  E E  E Q   E  Q
|-----------------------------|--------------------------------|
|-----------------------10----|--------------------------------|
|-12---11-12---11-12----------|-12---11-12---------------------|
|-----------------------------|---------------9-12----12-------|
|-----------------------------|--------------------------------|
|-----------------------------|--------------------------------|


   E E  E  E E  E  Q.    E E  E    E E  E  E E  E  Q.       +E  E  E
|-------------------------------|------------------------------------|
|-----------------------15------|-----------------15-------(15)------|
|-17---16-17---16-17---------17-|-16---15-16---17--------------------|
|-------------------------------|---------------------------------17-|
|-------------------------------|------------------------------------|
|-------------------------------|------------------------------------|
|
|  E Q     E Q     Q.    E Q       E Q     E E  E  E  E  E   E  Q
|-------------------------------|------------------------------------|
|-------------------------------|------------------------------------|
|--9------12------11----11------|--------------11-12-----------------|
|-------------------------------|-12------12------------12---9-------|
|-------------------------------|------------------------------------|
|-------------------------------|------------------------------------|


   E E  E  E E  E  Q.    Q.      E E  E  Q.       +Q    E  E E  E
|--------------15-13----------|-----------------------------------|
|-16---15-16------------16----|-15---14-15-------(15)-------------|
|-----------------------------|---------------------------17---15-|
|-----------------------------|-----------------------------------|
|-----------------------------|-----------------------------------|
|-----------------------------|-----------------------------------|
|
|  E Q     E Q     Q.    Q.      E E  E  E  E  E   E  Q    E Q
|-----------------------------|-----------------------------------|
|---------11------10----10----|-----------------------------------|
|-12--------------------------|-10----9-10--------12------12------|
|-----------------------------|---------------12------------------|
|-----------------------------|-----------------------------------|
|-----------------------------|-----------------------------------|


                                                            D.S.
   E E  E  E E  E  Q.    Q.      H.               +Q.       Q    E
|-----------------------14----|------------------------------------*|
|--------------14-17----------|-15---------------(15)--------------*|
|-14---13-14------------------|------------------------------------*|
|-----------------------------|---------------------------------12-*|
|-----------------------------|------------------------------------*|
|-----------------------------|------------------------------------*|
|
|  E Q     E Q     Q.    Q.      E  E  E  E E  E   E  E  E  E E  E
|-----------------------------|------------------------------------*|
|-----------------------------|-------------------10---------------*|
|-12--------------------12----|-11----11-12---12-----------11------*|
|---------11------11----------|-------------------------12------10-*|
|-----------------------------|------------------------------------*|
|-----------------------------|------------------------------------*|


Duration Legend
---------------
W - whole; H - half; Q - quarter; E - 8th; S - 16th; T - 32nd; X - 64th; a - 
acciaccatura
+ - note tied to previous; . - note dotted; .. - note double dotted
Uncapitalized letters represent notes that are staccato (1/2 duration)
Irregular groupings are notated above the duration line
Duration letters will always appear directly above the note/fret number it 
represents the
duration for.  Duration letters with no fret number below them represent 
rests.  Multi-
bar rests are notated in the form Wxn, where n is the number of bars to rest 
for.  Low
melody durations appear below the staff

Tablature Legend
----------------
h   - hammer-on
p   - pull-off
b   - bend
pb  - pre-bend
r   - bend release (if no number after the r, then release immediately)
/\  - slide into or out of (from/to "nowhere")
s   - legato slide
S   - shift slide
  - natural harmonic
[n]  - artificial harmonic
n(n) - tapped harmonic
~   - vibrato
tr  - trill
T   - tap
TP  - trem. picking
PM  - palm muting
\n/  - tremolo bar dip; n = amount to dip
\n  - tremolo bar down
n/  - tremolo bar up
/n\  - tremolo bar inverted dip
=   - hold bend; also acts as connecting device for hammers/pulls
<>  - volume swell (louder/softer)
x   - on rhythm slash represents muted slash
o   - on rhythm slash represents single note slash

Misc Legend
-----------
|  - bar
||  - double bar
||o - repeat start
o|| - repeat end
*|  - double bar (ending)
:  - bar (freetime)
$  - Segno
&  - Coda
Tempo markers -  = BPM(8/16=s8/s16), where s8 = swing 8ths, 
s16 = swing 16ths


***************************************************************************************
* Generated using Power Tab Editor by Brad Larsen - 
http://powertab.guitarnetwork.org *
***************************************************************************************

VGJam Tabs Adventures of Lolo - "Main theme"
Tabs database last modified Tuesday, 01-Nov-2016 19:14:53 UTC.
Copyright © 1999 - 2016 VideoGameJam.com. All rights reserved.