VGJam Tabs Balloon Fight
Balloon Fight
"Theme" - Guitar tab
Platform(s):Nintendo Entertainment System
Tabbed by:Deezer
Last modified:2002-02-05
Print it:Original file (.TXT)
Hear it:MIDI file
#----------------------------------PLEASE NOTE---------------------------------#
#This file is the author's own work and represents their interpretation of the #
#song. You may only use this file for private study, scholarship, or research. #
#------------------------------------------------------------------------------#

Balloon Fight (NES)
"Main theme"

Originally composed by: ?
------------------------------------------------------------------------------
Tabbed by: Deezer (deezer@kontek.net)
For http://www.kontek.net/vgjam/
------------------------------------------------------------------------------

Symbols used:
 tr = trill

Standard tuning - (low to high) EADGBe


(The intro is two square waves tabbed for one guitar. If you're the only
 guitarist and lazy, playing just the top notes sounds good too.)
------------12----------------------------------
--12----14--12--12----------------------12------
--13----13------13------14--14--14--14--13--14--
------------------------16--16--16--16------16--
------------------------------------------------
------------------------------------------------

I suggest pick-hand tapping the 13th and 14th fret for these trills.
Watch out for that quick F# note after this...
------------------------------------------------
------------------------------------------------
--9tr13-----------------7tr14-------------------
------------------------------------------------
------------------------------------------------
------------------------------------------------

|-------------------------------------------------|
|---------9--12---------------14-----------12-----|
|-11-------------9--------11------11----9-------9-|
|-------------------------------------------------|
|-------------------------------------------------|
|-------------------------------------------------| x2


-------------------------12-11-10-9-----------------------
---------9--12----------------------12-11-10-9------------
-11-------------9------------------------------12-11-10-9-
----------------------------------------------------------
----------------------------------------------------------
----------------------------------------------------------

|-------------------------------------------------|
|---------9--12---------------14-----------12-----|
|-11-------------9--------11------11----9-------9-|
|-------------------------------------------------|
|-------------------------------------------------|
|-------------------------------------------------| x4

Back to beginning.


Last modified: 02/05/2002

VGJam Tabs Balloon Fight - "Theme"
Tabs database last modified Tuesday, 01-Nov-2016 19:14:53 UTC.
Copyright © 1999 - 2016 VideoGameJam.com. All rights reserved.