VGJam Tabs Battletoads
Battletoads
"Surf City" - Guitar tab
Platform(s):Nintendo Entertainment System
Tabbed by:Smeg
Last modified:2003-02-18
Print it:Original file (.TXT)
Hear it:MIDI file
Battletoads (NES) - Surf City

Composed by some guy at Rare

Tabbed by Smeg (smeg@fefea.org)

Bars not neccessarily accurate :)

  e|---------------------|----------|
  b|---------------------|---4--4-4-|
  g|---------------------|---3--3-3-|
  d|---------3-5-5-3---3-|----------|
  a|-3-3-3-6---------6---|-3--------|
  E|---------------------|----------|

  e|---------------------|----------|
  b|---------------------|---4--4-4-|
  g|---------------------|---3--3-3-|
  d|---------3-5-5-3---3-|----------|
  a|-3-3-3-6---------6---|-3--------|
  E|---------------------|----------|

  e|---------------------|---4--4-4-|
  b|---------------------|---4--4-4-|
  g|---------3-5-5-3---3-|----------|
  d|-3-3-3-6---------6---|-3--------|
  a|---------------------|----------|
  E|---------------------|----------|

  e|---------------------|----------|
  b|---------------------|---4--4-4-|
  g|---------------------|---3--3-3-|
  d|---------3-5-5-3---3-|----------|
  a|-3-3-3-6---------6---|-3--------|
  E|---------------------|----------|

  e|---------------|
  b|-------6-4-6-6-|
  g|-------7-5-7-7-|
  d|-8-8-8---------|
  a|---------------|
  E|---------------|

 Although it's not accurate to the capabilities of the NES, this section sounds
 best if you let all notes ring for as long as possible:

  e|---------3-------|---------3-------|
  b|-----3-4---4-3-4-|-----3-4---4-3-4-|
  g|---5-------------|---5-------------|
  d|-5---------------|-6---------------|
  a|-----------------|-----------------|
  E|-----------------|-----------------|

  e|---------3-------|---------3-------|
  b|-----3-4---4-3-4-|-----3-4---4-3-4-|
  g|-3-5-------------|---5-------------|
  d|-----------------|-6---------------|
  a|-----------------|-----------------|
  E|-----------------|-----------------|

  e|---------3-------|---------3-------|
  b|-----3-4---4-3-4-|-----3-4---4-3-4-|
  g|---5-------------|---5-------------|
  d|-5---------------|-6---------------|
  a|-----------------|-----------------|
  E|-----------------|-----------------|

  e|---------3-------|---------3-------|
  b|-----3-4---4-3-4-|-----3-4---4-3-4-|
  g|-3-5-------------|---5-------------|
  d|-----------------|-6---------------|
  a|-----------------|-----------------|
  E|-----------------|-----------------|

  e|---------3-------|---------3-------|
  b|-----3-4---4-3-4-|-----3-4---4-3-4-|
  g|---5-------------|---5-------------|
  d|-5---------------|-6---------------|
  a|-----------------|-----------------|
  E|-----------------|-----------------|

  e|---------3-------|---------3-------|
  b|-----3-4---4-3-4-|-----3-4---4-3-4-|
  g|-3-5-------------|---5-------------|
  d|-----------------|-6---------------|
  a|-----------------|-----------------|
  E|-----------------|-----------------|

  e|---------3-------|---------3-------|
  b|-----3-4---4-3-4-|-----3-4---4-3-4-|
  g|---5-------------|---5-------------|
  d|-5---------------|-6---------------|
  a|-----------------|-----------------|
  E|-----------------|-----------------|

  e|---------3-------|---------3-------|
  b|-----3-4---4-3-4-|-----3-4---4-3-4-|
  g|-3-5-------------|---5-------------|
  d|-----------------|-6---------------|
  a|-----------------|-----------------|
  E|-----------------|-----------------|

 The following passage is for two guitars; the top "staff" is the
 main melody (guitar 1) and the bottom is the harmony (guitar 2).

  e|---------------------|---8-6-----------|
  b|---------6-8-8-6---6-|-------8-8-6---6-|
  g|-5-5-5-8---------8---|-5-----------8---|
  d|---------------------|-----------------|
  a|---------------------|-----------------|
  E|---------------------|-----------------|
   |                     |                 |
   |                     |                 |
  e|---------------------|-----------------|
  b|---------------------|---8-8-----------|
  g|-5-5-5-7-5-8-8-7-5-7-|-5-----8-8-7-5-7-|
  d|---------------------|-----------------|
  a|---------------------|-----------------|
  E|---------------------|-----------------|

  e|---------------------|---8-6-----------|
  b|---------6-8-8-6---6-|-------8-8-6---6-|
  g|-------8---------8---|-------------8---|
  d|-8-8-8---------------|-6---------------|
  a|---------------------|-----------------|
  E|---------------------|-----------------|
   |                     |                 |
   |                     |                 |
  e|---------------------|-----------------|
  b|---------------------|---8-8-----------|
  g|-------7-5-8-8-7-5-7-|-------8-8-7-5-7-|
  d|-8-8-8---------------|-6---------------|
  a|---------------------|-----------------|
  E|---------------------|-----------------|

  e|---------------------|---8-6-----------|
  b|---------6-8-8-6---6-|-------8-8-6---6-|
  g|-5-5-5-8---------8---|-5-----------8---|
  d|---------------------|-----------------|
  a|---------------------|-----------------|
  E|---------------------|-----------------|
   |                     |                 |
   |                     |                 |
  e|---------------------|-----------------|
  b|---------------------|---8-8-----------|
  g|-5-5-5-7-5-8-8-7-5-7-|-5-----8-8-7-5-7-|
  d|---------------------|-----------------|
  a|---------------------|-----------------|
  E|---------------------|-----------------|

  e|---------------------|---8-6-----------|
  b|---------6-8-8-6---6-|-------8-8-6---6-|
  g|-------8---------8---|-------------8---|
  d|-8-8-8---------------|-6---------------|
  a|---------------------|-----------------|
  E|---------------------|-----------------|
   |                     |                 |
   |                     |                 |
  e|---------------------|-----------------|
  b|---------------------|---8-8-----------|
  g|-------7-5-8-8-7-5-7-|-------8-8-7-5-7-|
  d|-8-8-8---------------|-6---------------|
  a|---------------------|-----------------|
  E|---------------------|-----------------|

  e|-------------------------|-------------------------|
  b|-------------------------|-------------------------|
  g|---------3-5-5-3---------|---------3-5-5-3---------|
  d|-------5---------3-5---3-|-------5---------3-5---3-|
  a|-3-3-3---------------6---|-3-3-3---------------6---|
  E|-------------------------|-------------------------|

  e|-------------------------|-------------------------|
  b|-------------------------|-------------------------|
  g|---------3-5-5-3---------|---------3-5-5-3---------|
  d|-------5---------3-5---3-|-------5---------3-5---3-|
  a|-3-3-3---------------6---|-3-3-3---------------6---|
  E|-------------------------|-------------------------|

 Repeat from the top.

VGJam Tabs Battletoads - "Surf City"
Tabs database last modified Tuesday, 01-Nov-2016 19:14:53 UTC.
Copyright © 1999 - 2016 VideoGameJam.com. All rights reserved.